Guns N Roses - I Used To Love Her Chords & Tabs

 

I Used To Love Her Chords & Tabs

Guns N Roses Chords & Tabs

Version: 1 Type: Bass Tab 0 ratings
1 star 2 stars 3 stars 4 stars 5 stars
comments

I Used To Love Her Bass Tab


Gb|---------|---------------------------------------|
Db|7-5------|-----------------------------------5---|
Ab|----5-0-5|5-0--0-0-0-7-7-----------0--0--0-7---7-|
Eb|---------|---------------3--3-3--3---------------|

Verse
Gb|---------------------------------------|
Db|---------------------------------------|
Ab|5-0--0-0-0-7-7-----------0--0--0-3-4-5-|
Eb|---------------3--3-3--3---------------|

Gb|---------------------------------------|
Db|-----------------------------------5---|
Ab|5-0--0-0-0-7-7-----------0--0--0-7---7-|
Eb|---------------3--3-3--3---------------|

Pre Chorus

Gb|-----------------------------------------------------------|
Db|------------------------------7-5--------------------------|
Ab|---------0--0-0-----------0-0-----7-0----------0-0-0-3-4-5-|
Eb|3--3-3-3--------0-3--3-3-3------------3--3-3-3-------------|

[ Tab from: http://www.guitartabs.cc/tabs/g/guns_n_roses/i_used_to_love_her_btab.html ]
Gb|----------------------------|
Db|--------------9-7-9-7-------|
Ab|5--5-5-5--5-7---------9-7-5-|
Eb|----------------------------|

Solo 1
Gb|---------------------------------------|
Db|---------------------------------------|
Ab|5-0--0-0-0-7-7-----------0--0--0-3-4-5-|
Eb|---------------3--3-3--3---------------|

Gb|---------------------------------------|
Db|-----------------------------------5---|
Ab|5-0--0-0-0-7-7-----------0--0--0-7---7-|
Eb|---------------3--3-3--3---------------|

Solo 2
Gb|-----------------------------------------------------------|
Db|------------------------------7-5--------------------------|
Ab|---------0--0-0-----------0-0-----7-0----------0-0-0-3-4-5-|
Eb|3--3-3-3--------0-3--3-3-3------------3--3-3-3-------------|


Gb|----------------------------|
Db|--------------9-7-9-7-------|
Ab|5--5-5-5--5-7---------9-7-5-|
Eb|----------------------------|
Comments