Guns N Roses - I Dont Care About You Chords & Tabs

 

I Dont Care About You Chords & Tabs

Guns N Roses Chords & Tabs

Version: 2 Type: Tab 0 ratings
1 star 2 stars 3 stars 4 stars 5 stars
comments

I Dont Care About You Tab

   
Song:I Dont Care About You
Arist:Guns and Roses
Tab Date: June 1st 2005 9:00 pm
Tabber:Rbm90120

Someone already tried to tab this tab and in my opionion quote "It Sucks", so I wanna
if I can do a much better version. This is a great song, short, but still a cool song. I 
it everytime I see someone getting hurt. This song pretty much have the same riff in the
whole song, but I will show it repeated anyways just like the song is written. I add a
little pick slide to the end every change from chorus to the other riff, makes it sound
better and adds a nice little touch.Hope you like
it.

standard tuning (E, A, D, G, B, E)

Intro 2x
|-------------------------------|
|-------------------------------|
|---7-----2-----999999999-------|
|---7-----2-----999999999-------|
|---5-----0-----777777777-------|
|-------------------------------|

3x
|-------------------------|
|-------------------------|
|-------------2-2-2-------|
|-------------0-0-0-------|
|-0--0--0--0--------------|
|-------------------------|

then
|----------------|
|----------------|
|----------------|
|----------------|
|--0--0--0--0----|
|----------------|

2x
|-------------------------------|
|-------------------------------|
|---7-----2-----999999999-------|
|---7-----2-----999999999-------|
|---5-----0-----777777777-------|
|-------------------------------|

3x
|-------------------------|
|-------------------------|
|-------------2-2-2-------|
|-------------0-0-0-------|
|-0--0--0--0--------------|
|-------------------------|

then
|----------------|
|----------------|
|----------------|
|----------------|
|--0--0--0--0----|
|----------------|


2x
|-------------------------------|
|-------------------------------|
|---7-----2-----999999999-------|
|---7-----2-----999999999-------|
|---5-----0-----777777777-------|
|-------------------------------|
[ Tab from: http://www.guitartabs.cc/tabs/g/guns_n_roses/i_dont_care_about_you_tab_ver_2.html ]
3x
|-------------------------|
|-------------------------|
|-------------2-2-2-------|
|-------------0-0-0-------|
|-0--0--0--0--------------|
|-------------------------|

then
|----------------|
|----------------|
|----------------|
|----------------|
|--0--0--0--0----|
|----------------|

2x
|-------------------------------|
|-------------------------------|
|---7-----2-----999999999-------|
|---7-----2-----999999999-------|
|---5-----0-----777777777-------|
|-------------------------------|

3x
|-------------------------|
|-------------------------|
|-------------2-2-2-------|
|-------------0-0-0-------|
|-0--0--0--0--------------|
|-------------------------|

then
|----------------|
|----------------|
|----------------|
|----------------|
|--0--0--0--0----|
|----------------|

3x
|-------------------------------|
|-------------------------------|
|---7-----2-----999999999-------|
|---7-----2-----999999999-------|
|---5-----0-----777777777-------|
|-------------------------------|

after that
|-----------------------------|
|-----------------------------|
|---7----2----2~--------------|
|---7----2----2~--------------|
|---5----0----0~--------------|
|-----------------------------|

outro               lead
|-2-1-4-3-6-5-8-7-10-9-12-11-15-14-17-16----------------|
|-------------------------------------------------------|
|-------------------------------------------------------|
|-------------------------------------------------------|
|-------------------------------------------------------|
|-------------------------------------------------------|

                    rythem
|-------------------------------------------------------|
|-222--555--777--999--121212--141414--------------------|
|-222--555--777--999--121212--141414--------------------|
|-000--333--555--777--101010--121212--------------------|
|-------------------------------------------------------|
|-------------------------------------------------------|


I think this might be all right, im not sure about the end though e-mail me if you think 
needs to be changed, comments, or just for the hell of it e-mail me at rbm90120@aol.com 
rbm90120@graffiti.net. Enjoy!
Comments