Guns N Roses - Godfather Theme Chords & Tabs

 

Godfather Theme Chords & Tabs

Guns N Roses Chords & Tabs

Version: 5 Type: Tab 0 ratings
1 star 2 stars 3 stars 4 stars 5 stars
comments

Godfather Theme Tab

   
The Godfather Theme 
Guns N' Roses 
  


I wont include the timing because if you know the song you will know how to play it 



                    ~~                      ~~             1/2       1/2 
|-------------------------------------------------------------------------------| 
|--14-13-14-15-14-14------14-13-14-15-14-14-------14-13-14-17^--14-13-16^--14---| 
|--------------------14\--------------------13\---------------------------------| 
|-------------------------------------------------------------------------------| 
|-------------------------------------------------------------------------------| 
|-------------------------------------------------------------------------------| 



   f    f    f  ~~                                        ~~ 
|----------------------------10-13-12-10-13-10-12-10----------------------------| 
|-14^r------14^r----------10-------------------------11-13-10-------------------| 
|------14^r------13-------------------------------------------------------------| 
|-------------------------------------------------------------------------------| 
|-------------------------------------------------------------------------------| 
|-------------------------------------------------------------------------------| 

[ Tab from: http://www.guitartabs.cc/tabs/g/guns_n_roses/godfather_theme_tab_ver_5.html ]
                                   ~~          f           f 
|----10-13-12-10-13-10-12-10-----------------9-12^------9-10^---------| 
|-10-------------------------5/10-9-8---8-11-------8-11---------------| 
|---------------------------------------------------------------------| 
|---------------------------------------------------------------------| 
|---------------------------------------------------------------------| 
|---------------------------------------------------------------------| 



Unsure about this.  I modified it from the original score from the godfather theme. 



|--------------------------------------------------| 
|-------13-11-10-13-11-11-11-10--------------------| 
|----10--------------------------------------------| 
|-12----------------------------11-12--------------| 
|--------------------------------------------------| 
|--------------------------------------------------| 


                       ~~        ~~~ 
|-10-10-9-8-12-12-10-------------------------------| 
|--------------------11-10---10-9-8---8h11-9-10----| 
|--------------------------------------------------| 
|--------------------------------------------------| 
|--------------------------------------------------| 
|--------------------------------------------------| 



Well thats all I know.  All suggestions and corrections welcome. 
Please be kind, its my first attempt at this.        Carl Moran. 



Notation used: 
^  =  bend (how much is written above) 
~~ =  Vibrato 
p  =  pull off 
h  =  hammer on 
/  =  slide up 
\  =  slide down 
  

Comments