Guns N Roses - Coma Chords & Tabs

 

Coma Chords & Tabs

Guns N Roses Chords & Tabs

Version: 1 Type: Bass Tab 0 ratings
1 star 2 stars 3 stars 4 stars 5 stars
comments

Coma Bass Tab

tabbed by Doug
Drop D tuning

Intro
|-------------------------------------------------|
|--11---10---11-11---10----11---10---11-11---10---|
|-----0----0-------0----0-----0----0-------0----0-|
|-------------------------------------------------|

|--------------------------|------------------------|
|--------------------------|------------------------|
|--4-0--3-0--4-4--0-0--3-0-|-4-0--3-0--4-7-4-0--3-0-|
|--------------------------|------------------------|

|------------------------------|
|------------------------------|
|--4-0--3-0--4-7-4-0--3-3--2-0-|
|------------------------------|
[ Tab from: http://www.guitartabs.cc/tabs/g/guns_n_roses/coma_btab.html ]
Verse
|------------------------|--------------------------|----------|
|------------------------|---------------5----------|----------|
|------------------------|--------------------------|----------|
|--5-5--------5/12--5-5--|---3-3--------3--3--3-3---|---1-1----|

ill put the rest in later ill just put in that cool part duff plays later on in the song

|-------------------|------------------|-------------------|
|-------------------|------------------|-------------------|
|-------------------|----------4-------|-------------------|
|--5--5--5--5-2-3-4-|--5--5--5---7-8-9-|--5--5--5--5-2-3-4-|

|-------------------|------------------|-------------------|
|-------------------|------------------|-------------------|
|-------------------|----------4-------|-------------------|
|--5--5--5--5-2-3-4-|--5--5--5---7-8-9-|--5--5--5--5-2-3-4-|
Comments