Guns N Roses - Civil War Chords & Tabs

 

Civil War Chords & Tabs

Guns N Roses Chords & Tabs

Version: 3 Type: Tab 0 ratings
1 star 2 stars 3 stars 4 stars 5 stars
comments

Civil War Tab

   
Guns n roses 
Civil War
One of there best songs
Tuning-half step down(low to high: eb,ab,db,Gb,Bb,eb)

Intro g1 (acous.)
    Em                                   G
E|--------------------------------------------------------------------|
B|--------------------------------------------------------------------|
G|----------0--------------0---------------------0---------------0----|
d|------2-----2---2-----2----2-------0-------0-----0---0-----0-----0--|
a|----2---2-----2-----2---2----0h(2)-------2---2-----2-----2---2------|
e|--0---------------0--------------------3---------------3------------|
              Em                                    G
E|--------------------------------------------------------------------|
B|--------------------------------------------------------------------|
G|--------------------0---------------0---------------------0---------|
d|--------0-------2-----2---2-----2-----2-------0-------0-----0-------|
a|--0h(2)-------2---2-----2-----2---2-----0h(2)-------2---2-----0h(2)-|
e|------------0---------------0---------------------3-----------------|

       D/F#   
E|----------------------|
B|----------------------|
G|-------------2-0---0--|
d|--0------0-------2----|
a|-------0---0----------|
e|-----2----------------| end intro

Riff A
(g1 play intro)
g2 (elec. w/slight dirty tone)
    Em                       G           Em                       G
E|--12-------10--------------------------12-------10------------------|
B|-------------------10--11--12--------x------------------10--11--12--|
G|--------------------------------------------------------------------|
d|--------------------------------------------------------------------|
a|--------------------------------------------------------------------|
e|--------------------------------------------------------------------|

    D/F#             Let ring.........................................
E|--------------------------------------------------------------------|
B|--10--\-(8)\(7)\(5)-------------------------------------------------|
G|--------------------------------------------------------------------|
d|--------------------------------------------------------------------|
a|--------------------------------------------------------------------|
e|--------------------------------------------------------------------|
                                                            end Riff A

1st verse
(g1 repeats intro)
   "look at your..."   "look at your..."    "look at your..."
    Em                  G                    Em
E|-------------------|--------------------|---------------------------|
B|-------------------|--------------------|---------------------------|
G|-------------------|--------------------|---------------------------|
d|-------------------|--------------------|---------------------------|
a|-------------------|--------------------|---------------------------|
e|-------------------|--------------------|---------------------------|

   "way   they  always  done before."
    G                   D'f#
E|-------------------|-----------------|
B|-------------------|-----------------|
G|-------------------|-----------------|
d|-------------------|-----------------|
a|-------------------|-----------------|
e|-------------------|-----------------|

Interlude
(g1 plays intro)
(g2 plays riff A)
g3 (acous.)
(Let ring through)
    Em                              G
E|----------0---------------0-----------------0----------------------0--|
B|------5-----5---5-----5-----5---0-------3-----3---3------3-------3----|
G|----4---4-----4-----4---4-----4-------0---0-----0------0---0---0------|
d|--5---------------5-----------------5----------------5-------4--------|
a|----------------------------------------------------------------------|
e|----------------------------------------------------------------------|

    Em                             G               D/F#           Let ring
E|-----------0---------------0-------------0---------------0----------|
B|-------0-----0---0-----0-----3-------3-----3---3-----3-----3---0----|
G|-----0---0-----0-----0---0---------0---0-----------0---0------------|
d|---2---------------2-------------5-----------5---4-----------4------|
a|--------------------------------------------------------------------|
e|--------------------------------------------------------------------|
                                                               end Interlude
2nd verse   
(g1 plays intro)
   "look at the..."        "look at the..."    "look at the..."
    Em                      G                   Em
E|-----------------------|-------------------|---------------------|
B|-----------------------|-------------------|---------------------|
G|-----------------------|-------------------|---------------------|
d|-----------------------|-------------------|---------------------|
a|-----------------------|-------------------|---------------------|
e|-----------------------|-------------------|---------------------|

   "way   we've    always    done before."
    G                        D/F#
E|-----------------------|-------------------|
B|-----------------------|-------------------|
G|-----------------------|-------------------|
d|-----------------------|-------------------|
a|-----------------------|-------------------|
e|-----------------------|-------------------|

g1 and 2(w/chorus effect)                             "My hands are..."
    A7(no3)      B7add4/A          A7(no3)         D/A
E|-----------------------0-----------------3-0---0---------3-2--------|
B|------5------------------4---------------------4-------3-----3/(5)--|
G|----2---2---2------2---------2-------2---------------2--------------|
d|----------5------4---4-----4-------5---5-----5-----4----------------|
a|--0------------0-----------------0---------------0------------------|
e|--------------------------------------------------------------------|
 |  A5                             A5
 | g4(elec. w/dist.)
E|---------------------------------5----------------------------------|
B|---------------------------------5----------------------------------|
G|--2------------------------------2------------------2-2-2-2-2-2-----|
d|--2------------------------------2------------------2-2-2-2-2-2-----|
a|--0------------------------------0------------------0-0-0-0-0-0-----|
e|----------------------------------------------------------------0---|

Pre-chorus                             "the billions shift..."  
g2(chorus off)                                   (bend)
    E5  let ring..                       G5        (1\2)
E|------0-----------------------------------------------|
B|------0-----------------------------------------------|
G|---------------------------------------0--------------|
d|---------------------------------------0--------------|
a|--2------------------------------------x--------------|
e|--0------------------------------------3--------3-2b--|
 |        (p.m)        (p.m)
 | g4      ....         .....
E|------------------------------------------------------|
B|------------------------------------------------------|
G|-----------------------------------0---0--------------|
d|-----------------------------2p(0)-0---0--------5-4---|
a|------2--------2---2---------2p(0)-0---x--------x-x---|
e|--0---0--0--0--0---0--0-0-0--0---------3-----0--3-2---|
                                  "love of god.."
                                             (bend,release)
    E5  let ring.................  G5    D      (1/2)
E|------0----------------------------------------------|
B|------0--------------------------3-----3--3----------|
G|---------------------------------0-----2--2----------|
d|---------------------------------0-----0--0----------|
a|--2------------------------------x-------------------|
e|--0------------------------------3-----------0-2br---|
 |        (p.m)        (p.m)
 |         ....         ....
E|---------------------------------------2--2----------|
B|------------------------------------3--3--3----------|
G|---------------------------------0--0--2--2----------|
d|----------------------------0-0--0--0--0--0----------|
a|--2---2--------2---2--------0-0--x--x--0--0----5-4---|
e|--0---0--0--0--0---0--0--0--0-0--3--3--------0-3-2---|

                                    "blood hands.."
    E5  let ring.................... G5
E|------0--------------------------------------------------|
B|-----------------------------------3---------------------|
G|------------------------------0-0--0---------------------|
d|------------------------------0-0--0---------------------|
A|-----------------------------------x---------------------|
e|--0--------------------------------3---------------------|
 |        (p.m)        (p.m)                      -1/2
 |         ....         ....                       \ /
E|---------------------------------------------------------|
B|-----------------------------------3---------------------|
G|-----------------------------------0-----0--0-(0)(0)(0)--|
d|-----------------------------------0----x----------------|
A|--2---2--------2---2--------2------x---x-----------------|
e|--0---0--0--0--0---0--0--0--0------3---------------------|
                                               push guitar neck forward
                                              w/fretting hand whileholding 
                                               body of guitar w/picking hand
               
   (bend,release)
     (1\2)  E5 let ring.......................
E|-------------0------------------------------|
B|-------------0------------------------------|
G|--------------------------------------0--0--|
d|--------------------------------------0--0--|
A|----------2---------------------------------|
e|--3-2br-0-0---------------------------------|
 |               (p.m)         (p.m)
 |                ....         ....
E|--------------------------------------------|
B|--------------------------------------------|
G|--------------------------------------------|
d|--------------------------------------------|
A|--5-4---2----2--------2---2--------2--0--0--|
e|--3-2---0----0--0--0--0---0--0--0--0--0--0--|

    G5          D   "civil
E|--------------2--------|
B|--3-----------3--------|
G|--0-----------2--------|
d|--0---------0-0---0----|
A|--x-------2-------0-0--|
e|--3--------------------|
 |
 |
E|-----------------------|
B|--3----3------3--------|
G|--0----0------2--------|
d|--0----0------0--------|
A|--x----x------0--------|
e|--3----3---------------|end pre-chorus 
  ("waaaaarrrrrrs!")
    A5 let ring.......................
E|---------------------------------------------------------------|
B|---------------------------------------------------------------|
G|--2------(2)----------------------4-4-4----2-p-0--------2------|
d|--2------(2)----------------------4-4-4----2-p-0--------2------|
A|--0------(0)-------------------------------0------------0------|
e|---------------------------------------------------------------|
 |     (p.m)        (vibrato)
 |      ....     ....      ....     ....      ....     ....  
E|---------------------------------------------------------------|
B|---------------------------------------------------------------|
G|--2---------2--------4~~~------4--------5~~~------5--------7~~~|
d|--2---------2--------4~~~------4--------5~~~------5--------7~~~|
A|--0---0--0-----0--0------0--0-----0--0------0--0-----0--0------|
e|---------------------------------------------------------------|


E|-----------------------|
B|-----------------------|
G|-----------------------|
d|-----------------------|
A|-----------------------|
e|----------------5\(0)--|
 |
 |
E|-----------------------|
B|-----------------------|
G|--7-7-----8--9--9\-----|
d|--7-7--0--8--9--9\-----|
A|-----------------------|
e|-----------------------|

1st Solo       
(g2 and 4 play pre-chorus)
g5 (elec. w/dist and wah            (tremolo picking while sliding upstring)
   (full) (1\2)  (1/4)  (1/2)          /\/\/\/\/\
     E5                            G5
E|-----0------0---3b-0------0--------------------------|
B|-------0-3b---0-3b---0-3b---0---8~~~-----------------|
G|--2b--------------------------0-7~~~-------------0---|
d|-------------------------------------2-/-4-/-x-\-0---|
A|-----------------------------------------------------|
e|-----------------------------------------------------|

  (full)  (1/2)   (1/4)  (1/4)  
    E5                             G5                 D
E|-----0------0---3-b-0------0-------------------------------------|
B|-------0-3b---0-3-b---0-3b---0---8~~~~-8-7-h(8)p(7)--------------|
G|--2b---------------------------0-7~~~~--------------9-7---7-p(0)-|
d|--------------------------------------------------------7--------|
A|-----------------------------------------------------------------|
e|-----------------------------------------------------------------|

   (full) (1/2)   (1/4)  (1/2)
    E5                             G5
E|-----0------0---3-b-0------0----------------------------------------|
B|-------0-3b---0-3-b---0-3b---0---8--(5)/6--7-(7)/8-(9)/10--10-10----|
G|--2b---------------------------0-7--(4)/5--6-(6)/7-(8)/9---9--9/19\-|
d|--------------------------------------------------------------------|
A|--------------------------------------------------------------------|
e|--------------------------------------------------------------------|

    (full) (1/2)         (full)    
     E5                            G5    D
E|------0------0---3--0------0-----------------|
B|--------0-3b---0-3----0-3b---0---8~~~~-7~~~~-|
G|(\)2b--------------------------0-7~~~~-7~~~~-|
d|---------------------------------------------|
A|---------------------------------------------|
e|---------------------------------------------| end 1st solo

Bridge
g5 "black armband when"
    G5         Gmaj7/B       Em
E|----3----------------------------------------------------------|
B|--3-3----------------------------------------------------------|
G|--0------------------------------------------------------------|
d|--0------------------------------------------------------------|
A|--x------------------------------------------------------------|
e|--3------------------------------------------------------------|
 |
 |g1
E|---------------------------------------------------------------|
B|--------3---0--------3-----0-----------------------------------|
G|----0------------0-----0--------------------------0------------|
d|------0---0----4---4-----4------2---2---2-----2-----2-------0--|
A|---------------2----------------------2-----2---2-----(0)h2----|
e|--3---------------------------0---0-------0--------------------|
   "first memories they shot..."    
g2(w/clean tone)
    G5             Gmaj7/B          Em              C       D
E|---------------------------------------------------0--------0----|
B|-------------------------------------------------1---3-1--3---3--|
G|-----------------------------------------------------------------|
d|-----------------------------------------------------------------|
A|-----------------------------------------------------------------|
e|-----------------------------------------------------------------|
 |
 |
E|-----------------------------------------------------------------|
B|----------3---0----------3-----0-----------------------1------3--|
G|------0--------------0-----0------------0------------0------2----|
d|----0---0---0------4---4-----4------2-----2---2----2------0------|
A|-----------------2--------------------2-----2----3---------------|
e|--3-------------------------------0------------------------------|
   "never fell...vietnam"
g1 and 2
    G5           Gmaj7/B        Em 
E|---------------------------------------------------------------|
B|--------3---0--------3-----0-----------------------------------|
G|----0------------0-----0--------------------------0------------|
d|------0---0----4---4-----4------2---2---2-----2-----2-------0--|
A|---------------2----------------------2-----2---2-----(0)h2----|
e|--3---------------------------0---0-------0--------------------|
   "Can't trust..."
    G5             Gmaj7/B
E|----------------------------------|
B|----------3---0----------3-----0--|
G|------0--------------0-----0------|
d|----0---0---0------4---4-----4----|
A|-----------------2----------------|
e|--3-------------------------------|

                 "promised land..."
g2                (w/dist.)
    Em            C/G    D/A
E|------------------------------|
B|-----------------------7-7----|
G|---------0------5-5----7-7----|
d|-------2--------5-5--0-7-7-0--|
A|-----2----------3-3--0-5-5-0--|
e|--0-------------3-3----5-5----|
 |
 |g1              (g4 takes over)
E|------------------------------|
B|-----------------------7-7----|
G|---------0------5-5----7-7----|
d|-----2------4---5-5--x-7-7-0--|
A|-------2--------3-3--x-5-5-0--|
e|--0-------------3-3--x-5-5----|

Chorus 
g2 and 4
        "I don't need..."                                      "It..."
           (pm)
           ....   let ring          ....         ....
    G5           B5          E5                              G5    B5
E|--------------------------------------------------------------------|
B|--3--------------------------------------------------------3--------|
G|--0--------------------------------------------------------0--------|
d|--0------------4-----4-------------------------------------0-----4--|
A|--x------------2---2-P-0---2---2--------2---2--------2--2--x-----2--|
e|--3------3--3--------------0---0--0--0--0---0--0--0--0--0--3--------|
                                           "You're power-hungry..."
               E5         C      D        G5         B5          E5
E|--------------------------------------------------------------------|
B|------------------------5-5----7-7p(0)--3----3----------------------|
G|------------------------5-5----7-7p(0)--0----0----------------------|
d|--4-4-4-------------x-x-5-5--x-7-7p(0)--0----0-----4-----4----------|
a|--2-2-2p(0)--2---2--x-x-3-3--x-5-5p(0)--x----x--0--2---2-------2----|
e|-------------0---0----------------------3----3--------------0--0----|
                                     "I don't need..."
       ....         ....   
                                 G5           B5         
E|------------------------------------------------------|
B|-------------------------------3----3---3-------------|
G|-------------------------------0----0---0-------------|
d|-------------------------------0----0---0---4-----4---|
A|--2--------2---2-------2-2-2---x----x---x---2---2-p-0-|
e|--0--0--0--0---0--0--0-0-0-0---3----3---3-------------|

    E5       C        D
E|-----------------------------|
B|-----------5-5------7-7p(0)--|
G|-----------5-5------7-7p(0)--|
d|-----------5-5---0--7-7p(0)--|
A|--2--2--2--3-3---0--5-5p(0)--|
e|--0--0--0--------------------|end chorus

2nd Solo                      (Bend, strike then release)
g5 (w/wah)                        (full)
  (full) (strike then release from bend)
    G5                B5              E5
E|------------------------------------------------------------------------|
B|-------15---------------------------------------------------------------|
G|--14b-----14r-p(12)-14~~~~~-12-14-pb14r-p(12)------------------/19\-----|
d|----------------------------------------------14-14~~~~~~~~~------------|
A|------------------------------------------------------------------------|
e|------------------------------------------------------------------------|
 |Riff B                                              (p.m)
 |g2 and 4               let ring                      ...      ...    
E|------------------------------------------------------------------------|
B|--3---3---3-------------------------------------------------------------|
G|--0---0---0----0--------------------------------------------------------|
d|--0---0---0----0----4-----4---------------------------------------------|
A|--x---x---x----0----2---2-----------2------------2-2-----2--2-----2-2-2-|
e|--3---3---3----0--------------------0------------0-0-0-0-0--0-0-0-0-0-0-|

  (full)
    G5          B5                        E5                       C5
E|--------------------------------------------------------------------|
B|------3---------------------3-----------------(3)/5~~~~-3-5p(3)\(1)-|
G|--2b----2p(0)-2~~~~-0-2/(4)---4\(2)p(0)-2p(0)-----------------------|
d|--------------------------------------------------------------------|
A|--------------------------------------------------------------------|
e|--------------------------------------------------------------------|
 |
 |                        let ring
E|--------------------------------------------------------------------|
B|--3--3--3-----------------------------------------------------------|
G|--0--0--0-----------------------------------------------------------|
d|--0--0--0--0--4-------------4------------------------------------5--|
A|--x--x--x--0--2----------2--------------2-----------2-----2------3--|
e|--3--3--3-------------------------------0-----------0-----0---------|

                      (full) 
                 D5
E|--------------------------|
B|--3-1h(3)p(1)p(0)---0-8b~~|
G|------------------0-------|
d|--------------------------|
A|--------------------------|
e|--------------------------|
 |
 |
E|--------------------------|
B|--------------------------|
G|--------------------------|
d|---------------7----------|
A|---------------5----------|
e|--------------------------|end Riff B

(play Riff B(g2 and 4)once)
               (1/2)             (full)
     G5          B5                  E5
E|---------5-----------------------8b--8-7-8p(7)p(5)-|
B|~~(8)~~~~--8-7-7b-7~~~~7p(5)---5-------------------|
G|-----------------------------7---------------------|
d|---------------------------------------------------|
A|---------------------------------------------------|
e|---------------------------------------------------|
[ Tab from: http://www.guitartabs.cc/tabs/g/guns_n_roses/civil_war_tab_ver_3.html ]
                                                         (1/2)(full)
                              (full)  (strike then release from bend)
                               G5                   B5
E|----8p(7)p(5)---7-7-7-----------------------------------------------|
B|--8-----------8-------5~~~-------12-15----------------15-15b-15b----|
G|--------------------------7--14b-------14r-12-14/(16)---------------|
d|--------------------------------------------------------------------|
A|--------------------------------------------------------------------|
e|--------------------------------------------------------------------|
            (1/2)                                    (full)         
       (pre-bend, strike, release)
               E5                                C5        D5
E|--12---------------------------------------------------------------------|
B|-----15-12---------------------------------------------------------------|
G|-----------pb14r-p(12)---------------------------------------------------|
d|-----------------------14-14~~~12----------------------------------------|
A|----------------------------------14p(12)\(10)-12-10-12b-12p(10)---------|
e|-----------------------------------------------------------------12p(10)-|
                                                        end 2nd solo         
                                                                 
                                                                 
3rd Verse
(g1 plays intro)
   "look at the..."        "look at the..."    "look at the..."
    Em                      G                   Em
E|-----------------------|-------------------|---------------------|
B|-----------------------|-------------------|---------------------|
G|-----------------------|-------------------|---------------------|
d|-----------------------|-------------------|---------------------|
a|-----------------------|-------------------|---------------------|
e|-----------------------|-------------------|---------------------|
 |
 |(g2 and 4)
E|-----------------------------------------------------------------|
B|-----------------------------------------------------------------|
G|--7/(9)----------------------------------------------------------|
d|--x--------------------------------------------------------------|
A|--5/(7)7---------------------------------------------------------|
e|-----------------------------------------------------------------|
       (G5)
   "way   we've    always    done before."
    G                        D/F#
E|-----------------------|-------------------|
B|-----------------------|-------------------|
G|-----------------------|-------------------|
d|-----------------------|-------------------|
a|-----------------------|-------------------|
e|-----------------------|-------------------|end 3rd verse

4th Verse
(g1 plays intro)
(g2 plays Riff A)
   "Look in the..."        "Look at the..."    "Look at the..."
    Em                      G                   Em
E|-----------------------|-------------------|------------------------|
B|-----------------------|-------------------|------------------------|
G|-----------------------|-------------------|------------------------|
d|-----------------------|-------------------|------------------------|
A|-----------------------|-------------------|------------------------|
e|-----------------------|-------------------|------------------------|
   "I   don't   want   to   hear no more."
    G                       D/F#
E|-----------------------|-------------------|
B|-----------------------|-------------------|
G|-----------------------|-------------------|
d|-----------------------|-------------------|
A|-----------------------|-------------------|
e|-----------------------|-------------------|end 4th verse

g1 and 2(w/chorus effect)                             "My hands are..."
    A7(no3)      B7add4/A          A7(no3)         D/A
E|-----------------------0-----------------3-0---0---------3-2--------|
B|------5------------------4---------------------4-------3-----3/(5)--|
G|----2---2---2------2---------2-------2---------------2--------------|
d|----------5------4---4-----4-------5---5-----5-----4----------------|
a|--0------------0-----------------0---------------0------------------|
e|--------------------------------------------------------------------|
 |  A5                             A5
 | g4(elec. w/dist.)
E|---------------------------------5----------------------------------|
B|---------------------------------5----------------------------------|
G|--2------------------------------2------------------2-2-2-2-2-2-----|
d|--2------------------------------2------------------2-2-2-2-2-2-----|
a|--0------------------------------0------------------0-0-0-0-0-0-----|
e|----------------------------------------------------------------0---|

Pre-chorus
(g2 and 4 play pre-chorus)
                                  "All I've seen..."
    E5                             G5 
E|------------------------------|-------------------------------------|
B|------------------------------|-------------------------------------|
G|------------------------------|-------------------------------------|
d|------------------------------|-------------------------------------|
A|------------------------------|-------------------------------------|
e|------------------------------|-------------------------------------|
                                                 "Human rights..."
    E5                             G5             D
E|------------------------------|--------------|----------------------|
B|------------------------------|--------------|----------------------|
G|------------------------------|--------------|----------------------|
d|------------------------------|--------------|----------------------|
A|------------------------------|--------------|----------------------|
e|------------------------------|--------------|----------------------|
                                  "Bloody hands..."
    E5                             G5
E|------------------------------|-------------------------------------|
B|------------------------------|-------------------------------------|
G|------------------------------|-------------------------------------|
d|------------------------------|-------------------------------------|
A|------------------------------|-------------------------------------|
e|------------------------------|-------------------------------------|
                                                 "Scars of our civil
    E5                             G5             D
E|------------------------------|--------------|----------------------|
B|------------------------------|--------------|----------------------|
G|------------------------------|--------------|----------------------|
d|------------------------------|--------------|----------------------|
A|------------------------------|--------------|----------------------|
e|------------------------------|--------------|----------------------|
                                                              end Pre-chorus
   "waaaaarrrrrrs!"                                            
    A5 let ring.......................
E|---------------------------------------------------------------|
B|---------------------------------------------------------------|
G|--2------(2)----------------------4-4-4----2-p-0--------2------|
d|--2------(2)----------------------4-4-4----2-p-0--------2------|
A|--0------(0)-------------------------------0------------0------|
e|---------------------------------------------------------------|
 |     (p.m)        (vibrato)
 |      ....     ....      ....     ....      ....     ....  
E|---------------------------------------------------------------|
B|---------------------------------------------------------------|
G|--2---------2--------4~~~------4--------5~~~------5--------7~~~|
d|--2---------2--------4~~~------4--------5~~~------5--------7~~~|
A|--0---0--0-----0--0------0--0-----0--0------0--0-----0--0------|
e|---------------------------------------------------------------|


E|-----------------------|
B|-----------------------|
G|-----------------------|
d|-----------------------|
A|-----------------------|
e|----------------5\(0)--|
 |
 |
E|-----------------------|
B|-----------------------|
G|--7-7-----8--9--9\-----|
d|--7-7--0--8--9--9\-----|
A|-----------------------|
e|-----------------------|

3rd Solo
(g2 and 4 play Pre-chorus,once)
g5 (elec. w/dist. and wah)

    E5                             G5
E|-----0------0---3-b-0------0-----3~~~~3-0-3p(0)-2h(3)p(2)p(0)-|
B|-------0-3b---0-3-b---0-3b---0---3~~~~------------------------|
G|--2b---------------------------0------------------------------|
d|--------------------------------------------------------------|
A|--------------------------------------------------------------|
e|--------------------------------------------------------------|

                                 E5                           G5
E|-------0------------0--------------0----0---3--0------0-------|
B|-----0---0-3p(0)------3p(0)--------0-3b---0-3----0-3b---0---8-|
G|--2b-------------2b---------2b-r-b-0----------------------0-7-|
d|--------------------------------------------------------------|
A|--------------------------------------------------------------|
e|--------------------------------------------------------------|
                                                           release, pull off)
   (bend,release,pull off)                        (bend, hold,
            D      E5                              G5
E|--------------------0------0---3-b-0------0---------------------|
B|--7brp(5)-7--7\-------0-3b---0-3-b---0-3b---0---3bh--3----------|
G|-----------------2b---------------------------0-2bh--2---2rp(0)-|
d|----------------------------------------------------------------|
A|----------------------------------------------------------------|
e|----------------------------------------------------------------|

      E5                           G5         D
E|------0------0---3--0------0-----------------------|
B|--------0-3b---0-3----0-3b---0---8~~~~7h(8)-7--7/--|
G|--2-b--------------------------0-7~~~~7-----7--7/--|
d|---------------------------------------------------|
A|---------------------------------------------------|
e|---------------------------------------------------|end 3rd Solo
         (p.m)         (pm)           (pm)
       .........    ...........    ...........
g4  A5           B5/A           C5/A           D5/A
E|-----------------------------------------------|
B|-----------------------------------------------|
G|--2------------4--------------5--------------7-|
d|--2------------4--------------5--------------7-|
A|--0--0-0-0-0-0----0-0-0-0-0-0----0-0-0-0-0-0---|
e|-----------------------------------------------| 
 |
 |G5
E|-----------------------------------------------|
B|--/10~~~~~~~~~~~~~~~~~~~~~~~~~~~~~~~~~~~~~~~~~-|
G|--/9~~~~~~~~~~~~~~~~~~~~~~~~~~~~~~~~~~~~~~~~~~-|
d|-----------------------------------------------|
A|-----------------------------------------------|
e|-----------------------------------------------|
    (pm)
    .....    ...     .....     ...    .....
                 F5/A              C5/A     C5
E|---------------------------------------------------|
B|---------------------------------------------------|
G|--------7------10--------10------5--------5-5-5-0--|
d|--------7------10--------10------5--------5-5-5-0--|
A|--0-0-0----0-0-----0-0-0-----0-0----0-0-0-3-3-3----|
e|---------------------------------------------------|

Chorus
(g2 and 4 play chorus)
        "I   don't  need..."                          "I don't need..."
    G5              B5              E5              G5         B5
E|---------------|---------------|---------------|----------|----------|
B|---------------|---------------|---------------|----------|----------|
G|---------------|---------------|---------------|----------|----------|
d|---------------|---------------|---------------|----------|----------|
A|---------------|---------------|---------------|----------|----------|
e|---------------|---------------|---------------|----------|----------|
                                      "Your're power-hungry..."
    E5              C     D          G5             B5         E5
E|---------------|------|---------|--------------|----------|----------|
B|---------------|------|---------|--------------|----------|----------|
G|---------------|------|---------|--------------|----------|----------|
d|---------------|------|---------|--------------|----------|----------|
A|---------------|------|---------|--------------|----------|----------|
e|---------------|------|---------|--------------|----------|----------|
         "I  don't  need..."
    G5              B5
E|---------------|---------------|
B|---------------|---------------|
G|---------------|---------------|
d|---------------|---------------|
A|---------------|---------------|
e|---------------|---------------|end Chorus

g2 and 4 (p.m)
   "war  no no no no no oh no oh no 
       .......
    E5               C     D
E|--------------------------------|
B|-------------------5-5---7-7----|
G|-------------------5-5---7-7----|
d|-------------2-2-2-5-5---7-7----|
A|--2--2-2-2-2-2-2-2-3-3---5-5----|
e|--0--0-0-0-0-0-0-0-----x-----0--|

Riff C
g2 and 4
         " I don't need..."
       (pm)  (pm)   (pm)           (pm)  (pm)(pm)  (pm)  (pm)
        .     .      .              .     .   ...   .     ...
    G5          B5           E5                               G5
E|----------------------------------------------------------------|
B|----------------------------------------------------------------|
G|----------------------------------------------------------------|
d|--------------4--5---4-5----------------------------------------|
A|--5-7---5-7-0-2--2-2-2-2-2-2--2-3---2-3---2-----3---2-3-----5-7-|
e|--3-3-3-3-3----------------0--0-0-0-0-0-0-0-0-0-0-0-0-0-0-0-3-3-|
   (pm)  (pm)   (pm)           (pm)  (pm)(pm)
    .     .      .              .     .   .
            B5           E5                 C5   D5
E|------------------------------------------------------|
B|------------------------------------------------------|
G|------------------------------------------------------|
d|----------4--5---4-5----------------------5-5--7-7----|
A|----5-7-0-2--2-2-2-2-2-2--2-3---2-3---2---3-3--5-5-0--|
e|--3-3-3----------------0--0-0-0-0-0-0-0-0----------0--|end Riff C

(g2 and 4 plays Riff C)
    G5         B5          E5         G5          B5
E|----------|-----------|----------|-----------|----------------------|
B|----------|-----------|----------|-----------|----------------------|
G|----------|-----------|----------|-----------|----------------------|
d|----------|-----------|----------|-----------|----------------------|
A|----------|-----------|----------|-----------|----------------------|
e|----------|-----------|----------|-----------|----------------------|

    E5         C5          D5
E|----------|-----------|----------|
B|----------|-----------|----------|
G|----------|-----------|----------|
d|----------|-----------|----------|
A|----------|-----------|----------|
e|----------|-----------|----------|

4th solo
(g2 and 4 play Riff C)
g5 (elec. dist. w/wah)
  (full)                                         (full) (full) (full)
    G5                                     B5
E|--------------------------------------------------------------------|
B|-------12h(15)----12h(15)----12h(15)-----12h(15)-----15-----15------|
G|--14b----------14---------14----------14---------14b----14b----14b--|
d|--------------------------------------------------------------------|
A|--------------------------------------------------------------------|
e|--------------------------------------------------------------------|
     (full)  (full) (full)             (full)       (1/2)      (full)
               E5
E|--------------------------------------------------------------------|
B|--15------15-----15------15----12h(15)-----12h(15)-----12h(15)------|
G|-----14b-----14b----14b-----14---------14b---------14b---------14b--|
d|--------------------------------------------------------------------|
A|--------------------------------------------------------------------|
e|--------------------------------------------------------------------|
                                      (Full)(full) (full)
                                                 G5
E|-----------------------------------------------12-----12------------|
B|--15----12-15p(12)----12-15p(12)----12-15b-15b----15b----15p(12)----|
G|-----14------------14------------14------------------------------14-|
d|--------------------------------------------------------------------|
A|--------------------------------------------------------------------|
e|--------------------------------------------------------------------|

                                 B5
E|--------------------------------------------------------------------|
B|--15p(12)-13h(15)p(13)p(12)----12h(13)p(12)----12-------------------|
G|----------------------------14--------------15----15-14~~~~p(12)----|
d|-----------------------------------------------------------------14-|
A|--------------------------------------------------------------------|
e|--------------------------------------------------------------------|
           (full) (full) 
             E5                                        C5
E|-----------15b--r-15b-15-14-15-14h(15)p(14)p(12)-14----12h(14)p(12)-|
B|----------------------------------------------------15--------------|
G|--14----12----------------------------------------------------------|
d|-----14-------------------------------------------------------------|
A|--------------------------------------------------------------------|
e|--------------------------------------------------------------------|
                 (bend, hold, release)
         (1/2)         (full)                                    (1/2)
             D5     G5         B5                                 E5
E|-----12-14b-\--------20b-h-20r-19-20-19h(20)p(19)p(17)-19~~~~17-----|
B|--15--------------17--------------------------------------------19br|
G|--------------/19---------------------------------------------------|
d|--------------------------------------------------------------------|
A|--------------------------------------------------------------------|
e|--------------------------------------------------------------------|
(pre-bend, strike, release, pull off)
       (1 1/2)         (full)         (full)            (full)
                                                         G5
E|--------------------------12---------------------------17b-17-15-17-|
B|--17-pb17rp(15)----17-15b----15p(12)--------------------------------|
G|----------------16-------------------14b-14-12----------------------|
d|-----------------------------------------------14~~~~---------------|
A|--------------------------------------------------------------------|
e|--------------------------------------------------------------------|
                   (1/2)          (full)(1/4)           (full)
    B5                           E5                           C5
E|--17~~~~15-17-15-pb17r-p(15)-17-15-17b-15b-------------------12------|
B|------------------------------------------17~~~~15h(17)-15b-----15-12|
G|---------------------------------------------------------------------|
d|---------------------------------------------------------------------|
A|---------------------------------------------------------------------|
e|---------------------------------------------------------------------|
         (1/4)
          D5
E|------------------|
B|------------------|
G|--14----12b-12----|
d|-----14--------14-|
A|------------------|
e|------------------|end 4th solo

Outro
G5  
    G5                                     G5
E|--------------------------------------------------------------------|
B|--------------------------------------------------------------------|
G|--12~~~~~~~~~~~~~~~~~~~~~~~~~~~~~~~~~~~~----------------------------|
d|--------------------------------------------------------------------|
A|--------------------------------------------------------------------|
e|--------------------------------------------------------------------|
 |
 |g6 (elec. w/light dist. and wah)
E|--------------------------------------------------------------------|
B|--------------------------------------------------------------------|
G|---------7/(9)\(7)---------------------------7/(9)-9----------------|
d|---------x----------9--9-7/(9)\(7)\(5)-------x-----x--7/(9)\(7)-p(0)|
A|---------5/(7)\(5)--x--x-x-------------------5/(7)-7--x-------------|
e|--------------------7--7-5/(7)\(5)\(3)-p(0)-----------5/(7)\(5)-----|
 |                                         
 | g2 and 4
E|--------------------------------------------------------------------|
B|--------------------------------------------------------------------|
G|--0--------------------------------------0--------------------------|
d|--0--------------------------------------0--------------------------|
A|--x--------------------------------------x--------------------------|
e|--3--------------------------------------3--------------------------|

g6
E|----------------------------------------------------------------|
B|----------------------------------------------------------------|
G|-----7/(9)\(7)---------------------------7/(9)------------------|
d|--5--x----------9--9-7/(9)\(7)\(5)-------x------7/(9)\(7)-p(0)--|
A|--x--5/(7)\(5)--x--x-x-------------------5/(7)--x---------------|
e|--3-------------7--7-5/(7)\(5)\(3)-p(0)---------5/(7)\(5)-------|


E|----------------------------------------------------------------|
B|----------------------------------------------------------------|
G|-----7/(9)\(7)---------------------------7/(9)------------------|
d|--5--x----------9--9-7/(9)\(7)\(5)-------x------7/(9)\(7)-p(0)--|
A|--x--5/(7)\(5)--x--x-x-------------------5/(7)--x---------------|
e|--3-------------7--7-5/(7)\(5)\(3)-p(0)---------5/(7)\(5)-------|


E|----------------------------------------------------------------|
B|----------------------------------------------------------------|
G|-----7/(9)\(7)---------------------------7/(9)------------------|
d|--5--x----------9--9-7/(9)\(7)\(5)-------x------7/(9)\(7)-p(0)--|
A|--x--5/(7)\(5)--x--x-x-------------------5/(7)--x---------------|
e|--3-------------7--7-5/(7)\(5)\(3)-p(0)---------5/(7)\(5)-------|

E|-------------------|
B|-------------------|
G|-----7/(9)\(7)-----|
d|--5--x---------7---|
a|--x--5/(7)\(5)-x---|
e|--3------------9---|end outro

Well that's the whole song....I'm sure this is a 100% right.....if not real close.
Well let me know what u think.....peace.

h - hammer on
p - pull off
/ - slide up(toward the bridge)
\ - slide down(toward the nut) 
b - bend (usually (1/2) or (full))
r - release from bend
pb - pre-bend(bend first before striking note)
bh - bend hold(hold bend)
/\/\/\/\ - tremolo picking
\  /
 \/  - bar dip
~~~~ - vibrato
( ) - dont play note but use it(ex. 14/(15), strike the 14,slide to 15 but don't
play note. so it's just one whole note.)
x - rake (dead note(don't press to hard w/ fretting hand)
.... - palm mute (or sometimes letting it ring but I label that)

Lyrics:

Look at your young men fighting, look at your women crying,
look at your men dying, the way they've always done before

Look at the hate we're breeding, look at the fear we're feeding,
Comments