Guns N Roses - Civil War Chords & Tabs

 

Civil War Chords & Tabs

Guns N Roses Chords & Tabs

Version: 2 Type: Tab 0 ratings
1 star 2 stars 3 stars 4 stars 5 stars
comments

Civil War Tab

   
this is 1 great song plz email me the solos 2 noght train if u have
them: cool_foxy44!hotmail.com
Tabbed by harvey fox

p=pull
h=hammer
v=vibrate
/=slide
b=bend


Eb:--------------------------------------------------------------------
Bb:----15-----------------------------------------15/--3------------3--
Gb:14b---14-(14)p12-14vvv12-14-14b-(14)p12------------2-2-0-2vv0-2/4---
Db:----------------------------------------14-14-----------------------
Ab:--------------------------------------------------------------------
Eb:--------------------------------------------------------------------

[ Tab from: http://www.guitartabs.cc/tabs/g/guns_n_roses/civil_war_tab_ver_2.html ]
Eb:---------------------------------------------------5-------------------8b
Bb:----------3/5-5vv-3-5-3/1-3-1-3p1p0---8b-(8)-(8)v----8-7-7b-7v-7p5---5---
Gb:4/2p0-2-0---------------------------0-------------------------------7----
Db:-------------------------------------------------------------------------
Ab:-------------------------------------------------------------------------
Eb:-------------------------------------------------------------------------

Eb:8-7-8-7h8p7p5----7---7-7-------------------------------------------12-----
Bb:---------------8---8------------------15------------------15-15b15b--15-12
Gb:-------------------------9vv7-14b-14b---14b-(14)-12-14/16-----------------
Db:--------------------------------------------------------------------------
Ab:--------------------------------------------------------------------------
Eb:--------------------------------------------------------------------------

Eb:--------------------------------------------------------------------------
Bb:--------------------------------------------------------------------------
Gb:14b(14)-12----------------------------------------------------------------
Db:----------14-14vv12-------------------------------------------------------
Ab:--------------------14/12p10-12-10-12b-12-10------------------------------
Eb:---------------------------------------------12-10-12---------------------
Comments