Guns N Roses - Buick Makane Chords & Tabs

 

Buick Makane Chords & Tabs

Guns N Roses Chords & Tabs

Version: 1 Type: Bass Tab 0 ratings
1 star 2 stars 3 stars 4 stars 5 stars
comments

Buick Makane Bass Tab

tabbed by Doug
standard tuning

Main riff
|----------------------0-------------0---------|
|--0-2--0-2----0-2-0-2---2---0-2-0-2---2-0-----|
|------------------------------------------2-0-|
|----------------------------------------------|
[ Tab from: http://www.guitartabs.cc/tabs/g/guns_n_roses/buick_makane_btab.html ]
Solo
|----------------------------------------------|
|----------------------5-------------5---------|
|--5-7--5-7----5-7-5-7---7---5-7-5-7---7-5-----|
|------------------------------------------7-5-|

End riff
|----------------22-----------4-|
|-44-2-------2------2-------2---|
|------4-2-4----------4-2-4-----|
|-------------------------------|
Comments