Guns N Roses - Attitude Chords & Tabs

 

Attitude Chords & Tabs

Guns N Roses Chords & Tabs

Version: 1 Type: Tab 3 ratings
1 star 2 stars 3 stars 4 stars 5 stars
comments

Attitude Tab

   
Song: Attitude
Artist: Guns N' Roses
Album: The Spagetti Incident

Standard Tuning - EADGBE


Intro: (Keep playing until Duff starts singing.)

E-----------------------
B-----------------------
G-6-6-6-6-6-6-6-6-6-6-6-
D-6-6-6-6-6-6-6-6-6-6-6-
A-4-4-4-4-4-4-4-4-4-4-4-
E-----------------------


Verse 1: (Attitude, you've got some attitude...)

E--------------------------
B--------------------------
G-6-6-6-6-6-6--------------
D-6-6-6-6-6-6--4-4-4-4-4-4-
A-4-4-4-4-4-4--4-4-4-4-4-4-
E-----------------2-2-2-2-2-2-


Chorus: (Inside that bitter brain, there's gotta be...)
[ Tab from: http://www.guitartabs.cc/tabs/g/guns_n_roses/attitude_tab.html ]
E-----------------------------------------------------------------
B-----------------------------------------------------------------
G-----------------------------------------------------------------
D-3-3-3-3-3-3-4-4-4-4-4-4-6-4-3-3-3-3-3-3-4-4-4-4-4-4-6-6-6-6-6-6-
A-3-3-3-3-3-3-4-4-4-4-4-4-6-4-3-3-3-3-3-3-4-4-4-4-4-4-6-6-6-6-6-6-
E-1-1-1-1-1-1-2-2-2-2-2-2-4-2-1-1-1-1-1-1-2-2-2-2-2-2-4-4-4-4-4-4-

I'm not sure what to call this part of the song, but it's the part that sounds exactly the same as the first
verse, apart from it uses different powerchords.

E
B
G-6-6-6-6-6-6-
D-6-6-6-6-6-6-6-6-6-6-6-6-
A-4-4-4-4-4-4-6-6-6-6-6-6-
E----------------4-4-4-4-4-4-

Sorry, I haven't written the timing for the song, but if you listen to it, it's pretty easy to figure
out.

Comments