Guns N Roses - Aint It Fun Chords & Tabs

 

Aint It Fun Chords & Tabs

Guns N Roses Chords & Tabs

Version: 4 Type: Tab 0 ratings
1 star 2 stars 3 stars 4 stars 5 stars
comments

Aint It Fun Tab

This is the intro of "Ain't It Fun" by one of the best bands in the world. Iv tabbed for
people who like to learn the best riffs, but cant be arsed to change tuning for every
So if u play in EADgbe, then have fun.....

Slash's intro is split into six phrases, with a small rest inbetween each one, so i have
it section by section.

Tuning:EADgbe

^^^^^^^^^^^^^^^^^^^^^^^^^^^^^^^^^^^^^^^^^^^^^^^^^^^^^^^^^^^^^^^^^^^^^^^^^^^^
Section 1.

e-----------------------------------------------------|
b------------------------------2/4-2-4/6-/-9-11p9-11~-|
g---------------1-3~F~-------3------------------------|
D-----------1h3---------------------------------------|
A-1~--1-3-4-------------------------------------------|
E-----------------------------------------------------|

^^^^^^^^^^^^^^^^^^^^^^^^^^^^^^^^^^^^^^^^^^^^^^^^^^^^^^^^^^^^^^^^^^^^^^^^^^^^
Section 2.

e-----9h11b~r11-9h11-9b~--9b~------------|
b--11--------------------------11-9-9b~--|
g----------------------------------------|
D----------------------------------------|
A----------------------------------------|
E----------------------------------------|

^^^^^^^^^^^^^^^^^^^^^^^^^^^^^^^^^^^^^^^^^^^^^^^^^^^^^^^^^^^^^^^^^^^^^^^^^^^^
Section 3.

e-----------------------------------------------------------|
b-9b~r-6-----------------9-11-9-----------------------------|
g--------8b~r-6-8-6-8/10--------8b~rp6-8-6-8b~r6---6-5------|
D------------------------------------------------8-----6-8~-|
A-----------------------------------------------------------|
E-----------------------------------------------------------|

^^^^^^^^^^^^^^^^^^^^^^^^^^^^^^^^^^^^^^^^^^^^^^^^^^^^^^^^^^^^^^^^^^^^^^^^^^^^
Section 4.

e----------------------------------------------|
b-------------------------------6-6------------|
g-----6h8-6-8b~--8b~r-6h8-6-8-6-----8p6-8p6----|
D-6/8---------------------------------------8~-|
A----------------------------------------------|
E----------------------------------------------|

^^^^^^^^^^^^^^^^^^^^^^^^^^^^^^^^^^^^^^^^^^^^^^^^^^^^^^^^^^^^^^^^^^^^^^^^^^^^
Section 5.
[ Tab from: http://www.guitartabs.cc/tabs/g/guns_n_roses/aint_it_fun_tab_ver_4.html ]
e------9----------------------------------------|
b--------9-----------------------9----9h11------|
g-6h8b~~~~~r-6h8-6-6--6-8-6-8/10---10------6----|
D--------------------------------------------8~-|
A-----------------------------------------------|
E-----------------------------------------------|

^^^^^^^^^^^^^^^^^^^^^^^^^^^^^^^^^^^^^^^^^^^^^^^^^^^^^^^^^^^^^^^^^^^^^^^^^^^^
Section 6.

e-----------------------------------------------------|
b----------9-9----------------------------------------|
g-----6h8b~~~~~rp6--8-8-6--8-6-8brp6-8---6---5--------|
D-6/8----------------------------------8---8---6-8~~~-|
A-----------------------------------------------------|
E-----------------------------------------------------|

^^^^^^^^^^^^^^^^^^^^^^^^^^^^^^^^^^^^^^^^^^^^^^^^^^^^^^^^^^^^^^^^^^^^^^^^^^^^
OK, i know it says its only the intro above, but i also worked out the little riffs 
plays during the 1st and 2nd verses, so here they are as well.

Verse 1.

e----------------------------------------------------------------|
b----------------------------------------------------------------|
g------------------------------6~--------------------------------|
D-8*\\\\\----------------8-6h8------------------------10-6-8~*\\-|
A----------------------------------------------------------------|
E----------------------------------------------------------------|

^^^^^^^^^^^^^^^^^^^^^^^^^^^^^^^^^^^^^^^^^^^^^^^^^^^^^^^^^^^^^^^^^^^^^^^^^^^^
Verse 2.

e-------------------|---------------------|-------------|----11br9--|
b-------------------|----------------9-11-|-------11*\\-|-11--------|
g----6h8p6h8/10-----|----6h8p6h8//10------|--8/10-------|-----------|
D--8------------8\\-|--8------------------|-------------|-----------|
A-------------------|---------------------|-------------|-----------|
E-------------------|---------------------|-------------|-----------|

^^^^^^^^^^^^^^^^^^^^^^^^^^^^^^^^^^^^^^^^^^^^^^^^^^^^^^^^^^^^^^^^^^^^^^^^^^^^

LEGEND:

~   - vibrato
h   - hammer on
F   - Feedback (if you can)
b   - bend
r   - release
p   - pull off
b~  - bend and "wiggle"
b~r - bend, "wiggle" and release
brp - bend, release and pull off
/   - slide
Comments