Guns N Roses - Aint It Fun Chords & Tabs

 

Aint It Fun Chords & Tabs

Guns N Roses Chords & Tabs

Version: 3 Type: Tab 0 ratings
1 star 2 stars 3 stars 4 stars 5 stars
comments

Aint It Fun Tab

Song: Ain't It Fun
Band: Guns N' Roses
Album: The Spaghetti Incident


This is Slash's intro solo. Tune your guitar down half a step.

Intro solo 
e-|--------------------------------------------------------5--7p5-7-| 
B-|-------------------------------------------3s5--3--5s7-----------| 
G-|-------------------------2---4~--------4-------------------------| 
D-|-------------------2h4-------------------------------------------| 
A-|------2~--2-4-5--------------------------------------------------| 
E-|-----------------------------------------------------------------|

|-----10h12b~--r12--10h12--10b~-10b-------------|
|-12--------------------------------12-10-10b~--|
|-----------------------------------------------|
|-----------------------------------------------|
|-----------------------------------------------|
|-----------------------------------------------|
[ Tab from: http://www.guitartabs.cc/tabs/g/guns_n_roses/aint_it_fun_tab_ver_3.html ]
|------------------------------------------------------------------|
|--10br-7--------------------10-12-10------------------------------|
|----------9br-7--9-7--9s11-----------9brp7-9-7-9br-7---7-6--------|
|-----------------------------------------------------9-------7-9~-|
|------------------------------------------------------------------|
|------------------------------------------------------------------|

|--------------------------------------------------|
|---------------------------------7-7--------------|
|-----7h9-7-9b~---9br-7h9-7---9-7-----9p7--9-p7----|
|-7s9-------------------------------------------9~-|
|--------------------------------------------------|
|--------------------------------------------------|

|-------10-------------------------------------------------|
|----------10-----------------------------10----10h12------|
|-7h9b---------rb-7h9-7-7---7-9-7-9s11-11----11-------7----|
|-------------------------------------------------------9~-|
|----------------------------------------------------------|
|----------------------------------------------------------|

|------------------------------------------------------|
|----------10-10---------------------------------------|
|-----7h9b-------rbp7-9-9-7---9-7-9brp7-9---7---6------|
|-7s9-------------------------------------9---9---7-9~-|
|------------------------------------------------------|
|------------------------------------------------------|


tabbed by Ahsan Rabbani
Any questions, comments, etc:  ahsan.rabbani@utoronto.ca
Comments