Gun - Word Up Chords & Tabs

 

Word Up Chords & Tabs

Gun Chords & Tabs

Version: 1 Type: Tab 0 ratings
1 star 2 stars 3 stars 4 stars 5 stars
comments

Word Up Tab

   
Hello guys!
This is my first tab!
I play intro of the song like this:

E |- 9------------- 9-|
B |- 9----9--- 9--- 9-|
G |-11---11---11---11-|
D |-11---11---11---11-|
A |- 9--- 9--- 9--- 9-|
E |- 9------------- 9-|
     v    v    ^    v

E |-9---9---9-|
B |-9---9---9-|
G |-7---7---7-|
D |-7---7---7-|
A |-9---9---9-|
E |-9---9---9-|
    v   ^   v
[ Tab from: http://www.guitartabs.cc/tabs/g/gun/word_up_tab.html ]
E |-5---5/7-|
B |-5---5/7-|
G |-7---7/9-|
D |-7---7/9-|
A |-5---5/7-|
E |-5---5/7-|
    v    v

E |-7--- 9--- 9------------- 9-|
B |-7--- 9--- 9--- 9--- 9--- 9-|
G |-9---11---11---11---11---11-|
D |-9---11---11---11---11---11-|
A |-7--- 9--- 9--- 9--- 9--- 9-|
E |-7--- 9--- 9------------- 9-|
    v    ^    v    v    ^    v 


Legend:
v = down
^ = up

Play it clean!


THX-A-Lot! 
- McGrave

-> eMails and/or other stuff to McGrave@web.de
Comments