Guilty By Association - Hellbent Without A Pipe Chords & Tabs

 

Hellbent Without A Pipe Chords & Tabs

Guilty By Association Chords & Tabs

Version: 1 Type: Tab 0 ratings
1 star 2 stars 3 stars 4 stars 5 stars
comments

Hellbent Without A Pipe Tab

From The Muddy City Of Chilton comes G.B.A.

Hellbent Without A Pipe
Guilty By Association
Icelantic Records
Copyright 2002

Ice(guitar/bass/vocals)
Vioence X(Drums)
Tank(guitar)

Dropped D tunning
intro                      The main riff
e-------------------------|------------------------------|
b-------------------------|------------------------------|
g-------------------------|------------------------------|
d----0---0--0-0---5-4-3-2-|-0--2--0--3--0--2--0--3--2-2-2|
a----0---0--0-0---5-4-3-2-|-0--2--0--3--0--2--0--3--2-2-2|
d----0---0--0-0---5-4-3-2-|-0--2--0--3--0--2--0--3--2-2-2|
  (let ring)      (slide) 
[ Tab from: http://www.guitartabs.cc/tabs/g/guilty_by_association/hellbent_without_a_pipe_tab.html ]
Solo
e----10--12--15--14--10-10-15-15-14-15-14-12-12-12|
b--------(0)----------------(0)-------------(0)---|
g-------------------------------------------------|
d-------------------------------------------------|
a-------------------------------------------------|
d-------------------------------------------------|

outro
e---------------------------------------------|
b---------------------------------------------|
g---------------------------------------------|
d----14--14--14--11-11-11-10-9-8-7-6-5-4-3---2|
a----14--14--14--11-11-11-10-9-8-7-6-5-4-3---2|
d----12--12--12--9---9--9--8-7-6-5-4-3-2-1---0|
                        (slide)----------->(let ring)
Comments