Gufs - Smile Chords & Tabs

 

Smile Chords & Tabs

Gufs Chords & Tabs

Version: 1 Type: Tab 0 ratings
1 star 2 stars 3 stars 4 stars 5 stars
comments

Smile Tab

   
#----------------------------------PLEASE NOTE---------------------------------#
#This file is the author's own work and represents their interpretation of the #
#song. You may only use this file for private study, scholarship, or research. #
#------------------------------------------------------------------------------#
#

Date: Fri, 31 Oct 1997 11:23:38 -0600
From: Kevin Bilello 
Subject: TAB: "Smile" by The Gufs

Title: Smile
Album: The Gufs
Artist: The Gufs
Tuning: Standard w/capo 2nd fret 
Author: Kevin Bilello(kbilello@betasys.com)


KEY
----------------
h  - hammer-on
p  - pull-off
pm - palm mute
^  - half bend
~  - full bend
/  - slide up
\  - slide down

G1 - acoustic
G2 - electric w/ heavy distortion


INTRO:
Cadd9 (G2 gradual fade in)

F#m7 - D - Cadd9 - D  (G1 & G2 play 4x)
       (G2 pick chords last 2x)


VERSES 1 & 2:
F#m7 - D - Cadd9 - D  (G1 play 4x)
       (G2 pick chords last 2x)


FILL:
F#m7 - D - Cadd9 - D  (G1 & G2) 


CHORUS:(G2 play w/ G1 optional)
Am - Em - Cadd9 - B/G

Am - Em - Cadd9 - D - Esus4

Am - Em - Cadd9 - B/G

Am - Em - Cadd9 - D - Esus4


BRIDGE: (G1 strum chords 4x)
        (G2 plays notes w/ pm)
[ Tab from: http://www.guitartabs.cc/tabs/g/gufs/smile_tab.html ]
     F#m7    Cadd9      D      Cadd9   
E-|--------|--------|--------|--------|
B-|--------|--------|--------|--------|
G-|--------|--------|--------|--------|
D-|--------|--------|--------|--------|
A-|--0h2---|---3----|---5----|--3---5-|
E-|--------|--------|--------|--------|


SOLO: (G1 strum chords)
      (G2 plays notes w/ sustain)

      F#m7          D                Cadd9             D       
E-|-----12h14-|------12h14-|------12h14-----12h14-|--------|
B-|-12h14-----|-12h14------|-12h14-----12h14------|--12^---|
G-|-----------|------------|----------------------|--------|
D-|-----------|------------|----------------------|--------|
A-|-----------|------------|----------------------|--------|
E-|-----------|------------|----------------------|--------|

      F#m7          D          Cadd9           D       
E-|-----------|------------|------------|-----5-------|
B-|-8-8--8-8--|--8p7--7-7--|--7p5--5-5--|-8-7---------|
G-|-----------|------------|------------|-------------|
D-|-----------|------------|------------|-------------|
A-|-----------|------------|------------|-------------|
E-|-----------|------------|------------|-------------|

      F#m7          D                Cadd9             D       
E-|-----------|------------|----------------------|--------|
B-|-7h8--7h12-|-7h8--7h12--|-7h8--7h12--7h8--7h12-|-12~-10-|
G-|-----------|------------|----------------------|--------|
D-|-----------|------------|----------------------|--------|
A-|-----------|------------|----------------------|--------|
E-|-----------|------------|----------------------|--------|


INTRO 
VERSE 1
FILL 2x
VERSE 2
CHORUS
BRIDGE
FILL 4x (G2 w/ wah-wah)
VERSE 3
CHORUS
BRIDGE  (G1 only)
CHORUS
BRIDGE
FILL 2x (G2 w/ wah-wah)
SOLO    (G2 w/ wah-wah) 


CHORDS:
F#m7  - 022033
D     - x00232
Esus4 - x00233
Cadd9 - x32030
Am    - x02210
Em    - 022000
Comments