Gufs - Crash Into Me Chords & Tabs

 

Crash Into Me Chords & Tabs

Gufs Chords & Tabs

Version: 1 Type: Tab 0 ratings
1 star 2 stars 3 stars 4 stars 5 stars
comments

Crash Into Me Tab

   
#----------------------------------PLEASE NOTE--------------------------------#
#This file is the author's own work and represents their interpretation of the#
#song. You may only use this file for private study, scholarship, or research.#
#-----------------------------------------------------------------------------#

Date: Mon, 27 Oct 1997 12:39:46 -0600
From: still001@uwp.edu
Subject: TAB: "Crash (into me)" by The Gufs

Title: Crash (into me)
Album: The Gufs
Artist: The Gufs
Tuning: Standard 
Author: Kevin Bilello(kbilello@betasys.com)


KEY
------------
~  full bend
/  slide up
\  slide down


       E                                            E
      
E-|--------|------------------------------|------------------|
B-|--------|------------------------------|------------------|
G-|--------|------------------------------|------------------|
D-|--------|-6~-----------2-----//---4----|-----------9------|
A-|-----2--|---------0--3---3--//--5---5--|--------7---------|
E-|--0-----|------------------------------|------------------|
         play this part 4x...            last time end on this...


   (Guitar 1)                  (Guitar 2) C       D      E

E-|----0-------0-------0------|-----------------------------|
B-|--0---0---0---0---0---0----|-----------------------------|
G-|---------------------------|-----------------------------|
D-|---------------------------|------------5-------7------9-|
A-|---------------------------|----------3-------5------7---|
E-|---------------------------|-----------------------------|
           repeat both these parts as needed...


   (Pre-Chorus)      A          G          C            D  

E-|-------------|----------|----------|----------|-------------|
B-|-------------|----------|----------|----------|-------------|
G-|-------------|----------|----------|----------|-------------|
D-|-------------|----------|----------|-----5----|-------7-----|
A-|-------------|-----7----|-----5----|---3------|-----5-------|
E-|-------------|---5------|---3------|----------|-------------|
       oh - oh      oohh      oohh       oohh          oohh 

[ Tab from: http://www.guitartabs.cc/tabs/g/gufs/crash_into_me_tab.html ]
   (Chorus)      A           G 
                                  
E-|---------|----------|----------|--3--2----------------------|
B-|---------|----------|----------|--------3--3-/-5-----5-\-1--|
G-|---------|----------|----------|----------------------------|
D-|---------|----------|----------|----------------------------|
A-|---------|-----7----|------5---|----------------------------|
E-|---------|---5------|----3-----|----------------------------|
           
      

         A             G             C

E-|-------------|-------------|-------------|------------------|
B-|-------------|-------------|-------------|------------------|
G-|-------------|-------------|-------------|------------------|
D-|-------------|-------------|-------5-----|------------------|
A-|-------7-----|-------5-----|-----3-------|------------------|
E-|-----5-------|-----3-------|-------------|------------------|
    


       E            F#           G             A       

E-|-----------|------------|------------|-------------|--------|
B-|-----------|------------|------------|-------------|--------|
G-|-----------|------------|------------|-------------|--------|
D-|-----9-----|-------11---|------12----|-------14----|--------|
A-|---7-------|----9-------|---10-------|----12-------|--------|
E-|-----------|------------|------------|-------------|--------|
   this part is played right before the 2nd verse...  ...repeat


        A           G          C **         D        ** 2nd time
                                      
E-|-----------|-----------|-----------|------------|------------|
B-|-----------|-----------|-----------|------------|------------|
G-|-----------|-----------|-----------|------------|------------|
D-|-----------|-----------|------0-2--|-0----------|------------|
A-|--0---2-3--|------0-2--|--3--------|------3--2--|--3---0-2-0-|
E-|-----------|--3--------|-----------|------------|------------|
   G1:   play this part 3x...   ...play last part 2nd time only 


       A         G         C           D                
                                                                
E-|---------|---------|----------|------------|----------------|
B-|--3------|--3------|--3-------|-----5------|----------------|
G-|----3----|----3----|----3-----|-------5----|----------------|
D-|------3--|------3--|------3-/-|-/-5-----5--|----------------|
A-|---------|---------|----------|------------|----------------|
E-|---------|---------|----------|------------|----------------|
   G2:  this is played over the top... 
Comments