Guess Who - No Sugar Tonight Chords & Tabs

 

No Sugar Tonight Chords & Tabs

Guess Who Chords & Tabs

Version: 3 Type: Bass Tab

No Sugar Tonight Bass Tab

Tabbed By: Nicholas Cole-Klaes; Bass for Spherical
Notation:
Slide Up: /
Slide Down:\
pull off: p


Intro/Riff 1:Comes in after a couple of F#m to E's on the Guitar
G|----------------|----------------|----------------|----------------||
D|-----1-3/-4-----|-4-4-4-2-2------|-4-4-4-2-2------|-4-4-4-2-2------||
A|-1-3------------|-----------2----|-----------2----|-----------2----||
E|----------------|----------------|----------------|----------------||
This is repeated through the first and second verses
No Sugar Tonight

Chorus/Riff 2: Repeated once per line 
G|----------------||
D|----------------||
A|---------2-2----||
E|-2-2-0-0-----2-2||

Riff 1 repeated through verse 2:
[ Tab from: http://www.guitartabs.cc/tabs/g/guess_who/no_sugar_tonight_btab_ver_3.html ]
Back to Riff 2:
During this part you are playing one note F# that can be played like 
this:
G|----------------||
D|-4-4-4-4-4-4-4--||
A|----------------|| or like this 
E|----------------||

G|----------------||
D|----------------||
A|----------------||
E|-2-2-2-2-2-2-2--||

Here is a random riff a.k.a Riff 3 that sounds good, you can put this wherever 
you like during the course of the song:

G|----------------|----------------||
D|-4-4-4-2--------|----------------||
A|----------------|-4-2------------||
E|----------------|-----4-2--------||

G|----------------|----------------||
D|----------------|----------------||
A|----------------|-2-2-2-2-2-2-2-2||
E|-2-2-2-2-2-2-2-2|----------------||
Then for the she's gettin' us all part just play riff 1

Okay Enjoy it- The Bass Dude