Guess Who - No Sugar Tonight Chords & Tabs

 

No Sugar Tonight Chords & Tabs

Guess Who Chords & Tabs

Version: 2 Type: Bass Tab 0 ratings
1 star 2 stars 3 stars 4 stars 5 stars
comments

No Sugar Tonight Bass Tab

No Sugar Tonight/New Mother Nature - The Guess Who

  intro (x2)       
G|---------------|------------------------------|
D|---------------|------------------------------|
A|710--9---------|9--99-9--99-9--9--99-9----79--|
E|--------77--9--|------------------------79----|

  verse riff
G|-------------------|
D|-------------------|
A|997----9--9-997----|
E|---97----------97--|

  chorus riff
G|----------------|
D|----------------|
A|99--77------99--|
E|--------77------|
[ Tab from: http://www.guitartabs.cc/tabs/g/guess_who/no_sugar_tonight_btab_ver_2.html ]
  interlude before "New Mother Nature"
G|------------------------------------------------------------|
D|------------------------------------------------789--91011--|
A|710--9--------710--9--------710--9--------710--9------------|
E|--------7--9----------7--9----------7--9--------------------|

  verse intro                                             verse riff
G|-------------------------------------------------------|-------------------|
D|-------------------------------------------------------|-------------------|
A|9--99-9--99-9--9--99-9----79--9--99-9--99-9--9--997----|999--999--999--997-|
E|------------------------79-------------------------97--|----9----9----9---7|

  chorus riff
G|-------------------|
D|-------------------|
A|----------999--999-|
E|5777-57779----9----|

tabbed by Achilles (blue_sincere@hotmail.com)
Comments