Guess Who - Laughin Chords & Tabs

 

Laughin Chords & Tabs

Guess Who Chords & Tabs

Version: 1 Type: Bass Tab 0 ratings
1 star 2 stars 3 stars 4 stars 5 stars
comments

Laughin Bass Tab

   
Laughin'
Guess Who
TablEdited by Poppamies
Tuning : E A D G 	Time Signature: 4/4

 |       |       |       |        |       |       |   I should     
|--------------------------------|--------------------------------|
|---------------------6 bars without bass-------------------------|
|--------------------------------|--------------------------------|
|--------------------------------|--------------------------------|

 laugh...|       |       |        |       |       |       |        
|--------------------------------|--------------------------------|
|--------------------------------|--------------------------------|
|--------------------------------|--------------------------------|
|--------------------------------|--------------------------------|

 |       |       |       |        |       You took|me by sur-      
|--------------------------------|--------------------------------|
|--------------------------------|--------------------------------|
|--------------------------------|--------------------------------|
|--------------------------------|--------------------------------|

 prise...|       |       |        |       |       |       |        
|--------------------------------|------------------------0-------|
|0-----------------------0---2---|3---------------------------3---|
|--------------------------------|--------------------------------|
|--------------------------------|--------------------------------|

 |       |       |       |        |       |       Time goes        
|--------------------------------|--------------------------------|
|--------------------------------|--------------------------------|
|4-------------------------------|7-7---7-7---7/2-----------------|
|--------------------------------|------------------0-0-0-0---0---|

 slowly...       |       |        |       |       |       |        
|--------------------------------|--------------------------------|
|----------------2---2---2---2---|----------------3---3---3---3---|
|0-----------4-------------------|0-------0---4-------------------|
|--------------------------------|--------------------------------|

 |       |       |       |        |       |   You took me by sur-  
|--------------------------------|--------------------------------|
|----------------4---4---4---4---|----------------5-------5/--2---|
|0-------0---4-------------------|0-------0---4-------------------|
|--------------------------------|--------------------------------|

 prise...|       |       |        |       |       |       |        
|--------------------------------|------------------------0-------|
|0-----------0-------0---0---2---|3---3-------3---------------3---|
|--------------------------------|--------------------------------|
|--------------------------------|--------------------------------|

 |       |       |       |        |       |       |       |        
|----------------------------1---|--------------------------------|
|------------------------2-------|0-0---0-----------------4---2---|
|4-------------------4-----------|--------0-------2---------------|
|--------------------------------|--------------------------------|

 |       |       |       |        You took|away everything...      
|--------------------------------|----------------------------1---|
|0-0---0-----------------4---2-2-|0-----0---0-2---2-----2-4-------|
|--------0-------2-----2---2-----|--------0-----------------------|
|--------------------------------|--------------------------------|

 |       |       |       |        |       |       |       |        
|2-----2-2---2-2-2-2-------------|--------------------------------|
|----------4---------4---2-4-2---|0-----0-----------------4---4---|
|--------------------------------|--------0-----0-2-----2---2-----|
|--------------------------------|--------------------------------|

 |       |       |       |        |       |       |       |        
|--------------------------------|----------------------------1---|
|0-0---0-----------------4---2---|0-----0---0-1---2-----2-4-------|
|--------0-----0-2-----2---2-----|--------0-----------------------|
|--------------------------------|--------------------------------|
[ Tab from: http://www.guitartabs.cc/tabs/g/guess_who/laughin_btab.html ]
 |       |       |       |        |       |       I go a- |        
|2-------------------------------|--------------------------------|
|--------------------------------|--------------------------------|
|--------------------------------|0-------------------------------|
|--------------------------------|------------------------0/--1/2-|

 lone now...     |       |        |       |       |       |        
|----------------2---------------|----------------2---------------|
|------------2-----------4---2---|------------3-----------4---2---|
|0-------4-----------------------|0-------4-----------------------|
|--------------------------------|--------------------------------|

 |       |       |       |        |       |       |       |        
|----------------2---------------|------------2---0---------------|
|------------4-----------4---2---|------------------------4---2---|
|0-------4-----------------------|0-------4-----------------------|
|--------------------------------|--------------------------------|

 |       |       |       |        |       |       |       |        
|----------------7-------4-------|------------2---5-------4---2---|
|0-------4---7---------------7---|0-------3-----------------------|
|--------------------------------|--------------------------------|
|--------------------------------|--------------------------------|

 |       |       |       |        |       |       |       |        
|--------------------------------|--------------------------------|
|--------------------------------|2-2---2-2---2-0-2-2-0-----------|
|4-------------------------------|------------------------4---2---|
|--------------------------------|--------------------------------|

 |       |       |       |        |       |       |       |        
|----------------2---2-----------|----------------2---2-----------|
|------------2-----------4---2---|------------3-----------4-4-2---|
|0---0---4-----------------------|0---0---4-----------------------|
|--------------------------------|--------------------------------|

 |       |       |       |        |       |       |       |        
|----------------2-2-2-----------|------------2---0-0-0-0---------|
|------------4-----------4---2---|------------------------4-4-2---|
|0---0---4-----------------------|0---0---4-----------------------|
|--------------------------------|--------------------------------|

 |       |       |       |        |       |       |       |        
|----------------7---7---4-------|------------2---5---5---4-4-2---|
|0---0---4---7---------------7---|0---0---3-----------------------|
|--------------------------------|--------------------------------|
|--------------------------------|--------------------------------|

 |       |       |       |        |       |       |       |        
|----------------------------1---|--------------------------------|
|------------------------2-------|0-0---4-----------------4---2---|
|4-------------------4-----------|--------0-------2---2-2---2-----|
|--------------------------------|--------------------------------|

 |       |       |       |        |       |       |       |        
|--------------------------------|----------------------------1---|
|0-0---2-----------------4---2---|0-----0-----1---2---2---4-------|
|--------0-------2---2-2---2-----|--------0-0---------------------|
|--------------------------------|--------------------------------|

 |       |       |       |        |       |       |       |        
|2-2---2-2-2-2-2-2-2-------------|--------------------------------|
|--------------------4---2-0-----|0-0---0-----------------4---2---|
|----------------------------2---|--------0-----0-2---2-2---2-----|
|--------------------------------|--------------------------------|

 |       |       |       |        |       |       |       |        
|--------------------------------|----------------------------1---|
|0-0---2-----------------4---2---|0---0-0---0-1---2---2-2-4-------|
|--------0-----0-2---2-2---2-----|--------0-----------------------|
|--------------------------------|--------------------------------|

 |       |       |       |        |       |       |       |        
|2-2---2-2-2-2-2-2-2-------------|--------------------------------|
|--------------------4-4-2-------|0-0---0-----------------4---2---|
|--------------------------4-2---|--------0---1---2---2-2---2-----|
|--------------------------------|--------------------------------|


Created with TablEdit http://www.tabledit.com/
Comments