Guess Who - Key Chords & Tabs

 

Key Chords & Tabs

Guess Who Chords & Tabs

Version: 1 Type: Tab 0 ratings
1 star 2 stars 3 stars 4 stars 5 stars
comments

Key Tab

   
Song: The Key (Bachman, Cummings)
Band: The Guess Who 
Album: Canned Wheat (1969) & Let's Go The CBC Years (2005)
Tabber: Nick Gray
Email: ngray8725@yahoo.ca
Tuning: Standard (EADGBE)

A very cool repetitive riff along with Gary Peterson doing a "Moby Dick" style drum solo 
impersonation from Led Zeppelin.  Here's The Guess Who doing there own Moby Dick.  
The Let's Go album version is much shorter (5:51) than the Canned Wheat version (11:16).
Enjoy ! 

s-slide
h-hammer on
p-pull off

Verse
                             *h
                              o
                              l
                              d 
|------------------------------|
|------------------------------|
|-5-7-7-7-5-5-5-5-5-5-7-7-7-7-7|
|-5s7-7-7-5-5-5-5-5-5s7-7-7-7-7|
|-3-5-5-5-3-3-3-3-3-3-5-5-5-5-5|
|------------------------------|
[ Tab from: http://www.guitartabs.cc/tabs/g/guess_who/key_tab.html ]
John is nineteen and He doesn't see the matter...
Joshua puts on his mask and walks the road to Jericho...
Joseph tends the sheep in His coat of many colors...

*Hold the last chord while going into the chorus

Chorus

|------------------------------|
|------------------------------|
|-------5-7-7-----------------7|
|-7-----5-7-7-3-3-3-3-5-5-5-5-7|
|-7-----3-5-5-3-3-3-3s5-5-5-5-5|
|-5h3p0-------1-1-1-1-3-3-3-3--|

And I still call Him my friend 

The guitar solo starts at 2:40 the only part I could make out is this.  Other than that 
just mess around in C.

|---------------------|
|---------------------|
|---------------------|
|-----3h5p3-3----3h5p3|
|-3h5--------3h5------|
|---------------------|

Drum solo 5:32
Piano Interlude Outro 10:25 

Verse
Chorus
Verse
Chorus
Verse 
Chorus
Guitar Solo 
Drum Solo 
Piano Interlude Outro (Optional)

Lyrics Courtesy http://www.ghg.net/bnsteiss/lyrics/lyricsmain.html
Comments