Guardian - Bottle Rocket Chords & Tabs

 

Bottle Rocket Chords & Tabs

Guardian Chords & Tabs

Version: 2 Type: Bass Tab 0 ratings
1 star 2 stars 3 stars 4 stars 5 stars
comments

Bottle Rocket Bass Tab

   
"Bottle Rocket"
by Guardian
(c) 1997 Myrrh Records
Toonman (bass4jesus@aol.com)

Intro:
(Part 1)                        4x (Part 2)
D                                 |----------------------------------
A-4-6---4-6---4-6---4-6---4-6-----|-6-----6---4-----4---6---6-6------
E                                 |-----------------------------4---4

D-----------------------------------------------4-----4---6-----6---6
A-----------4-6-4---6-----6---4-----4---6---6-6----------------------
E---4---4------------------------------------------------------------
        2x (Part 3)
D-4-------|---|
A-----6---|---|
E---------|-6-|
[ Tab from: http://www.guitartabs.cc/tabs/g/guardian/bottle_rocket_btab_ver_2.html ]
Verse:
(Part 1)                                      4x (Part 2)
D-----------------4---4---6---6---6---6---4---4-|--------------------
A-6---6---6---6-----6-----------------------6---|--------------------
E-----------------------------------------------|-6------------------

D-------------|
A-----2---4---|
E-------------|

Chorus:
D#        F#        F        G#        (2x)

(Repeat Intro Part 2, play only once)

(Repeat Verse)

(Repeat Chorus)

Instrumental:
A#           B  C#  G#          F#  F   (2x)

(Repeat Intro Part 1, play 4x)

(Repeat Verse Part 2)

(Repeat Chorus, play 6x)

(Repeat Intro Part 1, play 4x)
Comments