Guano Apes - You Cant Stop Me Chords & Tabs

 

You Cant Stop Me Chords & Tabs

Guano Apes Chords & Tabs

Version: 1 Type: Bass Tab 0 ratings
1 star 2 stars 3 stars 4 stars 5 stars
comments

You Cant Stop Me Bass Tab

   
Band - Guano Apes		
Song - You Can't Stop Me

Tuning: Standart (E A D G)
Key:
h - hammer on
S - Slap
P - Pop
x - Dead note

Verse:
G|----------------|----------------|
D|--2-4-2-4-2---2-|4-2-4-2---2-4-2-|
A|4-----------4---|--------4-------| x12
E|----------------|----------------|

Chorus:
G|----------------|----------------|--------------------|----------------|
D|----------------|----------------|--------------------|----------------|
A|4444444444444444|--------77776666|2h4442h4442h4442h444|--------77776666| x2
E|----------------|55555555--------|--------------------|55555555--------|

Verse:
G|----------------|----------------|
D|--2-4-2-4-2---2-|4-2-4-2---2-4-2-|
A|4-----------4---|--------4-------| x8
E|----------------|----------------|

Chorus:
G|----------------|----------------|--------------------|----------------|
D|----------------|----------------|--------------------|----------------|
A|4444444444444444|--------77776666|2h4442h4442h4442h444|--------77776666| x2
E|----------------|55555555--------|--------------------|55555555--------|
[ Tab from: http://www.guitartabs.cc/tabs/g/guano_apes/you_cant_stop_me_btab.html ]
Interlude:
Part 1:                                 S   S P
G|-------------------|-----------------------|-------------------|---------------|
D|--2-4-2---2-4-2---2|--2-4-2---2-4-2-------4|--2-4-2---2-4-2---2|--2-4-2---2-4-2|
A|4-------4-------4--|4-------4-------0h2-x--|4-------4-------4--|4-------4------| x2
E|-------------------|-----------------------|-------------------|---------------|

Part 2:
G|----------------|----------------|
D|----------------|----------------|
A|4---------------|4---------------|
E|--------5-------|--------55555555|

G|----------------|----------------|
D|------------6666|77777777--------|
A|444444444444----|--------77776666| x2
E|----------------|----------------|

Chorus:
G|----------------|----------------|--------------------|----------------|
D|----------------|----------------|--------------------|----------------|
A|4444444444444444|--------77776666|2h4442h4442h4442h444|--------77776666| x3
E|----------------|55555555--------|--------------------|55555555--------|

End:
G|--------------------|----------------|
D|--2-4-2---2-4-2---2-|--2-4-2---2-4-2-|
A|4-------4-------4---|4-------4-------|
E|--------------------|----------------|

End.
Comments