Guano Apes - Suzie Chords & Tabs

 

Suzie Chords & Tabs

Guano Apes Chords & Tabs

Version: 1 Type: Tab 0 ratings
1 star 2 stars 3 stars 4 stars 5 stars
comments

Suzie Tab

Band - Guano Apes		
Song - Suzie

Key:
(t)  - tap the note w/ you picking-hand
pm.. - palm mute everything above it
\ /  - slide up or down
~~~~ - let it sustain
p    - pull off
h    - hammer on
!!   - trill pick (rapidly)

Main riff:
e|----------------------------------------------|
B|---(t)17-p10p9----(t)17-p10p9-----------------|
G|----------------------------------------------|
D|----------------------------------------------|
A|----------------------------------------------|
E|----------------------------------------------|

Main riff; fill A:
e|----------------------------------------------|
B|---(t)17-p10--(t)17-p10--(t)17-p9--(t)17-p9---|
G|----------------------------------------------|
D|----------------------------------------------|
A|----------------------------------------------|
E|----------------------------------------------|

Main riff, fill B:
e|----------------------------------------------|
B|---(t)17-p10--(t)16-p10--(t)15-p10-(t)14-p10--|
G|----------------------------------------------|
D|----------------------------------------------|
A|----------------------------------------------|
E|----------------------------------------------|

Chorus:
e|----------------------------------------------|
B|----------------------------------------------|
G|---5---5/6------------------------------------|
D|---5---5/6------------------------------------|
A|---3---3/4------------------------------------|
E|---3---3/4------------------------------------|
[ Tab from: http://www.guitartabs.cc/tabs/g/guano_apes/suzie_tab.html ]
Chorus lead overdub (pulled down in the mix):
e|----------------------------------------------|
B|----------------------------------------------|
G|--17!!!!!!!!--18!!!!!!!!----------------------|
D|--17!!!!!!!!--18!!!!!!!!----------------------|
A|----------------------------------------------|
E|----------------------------------------------|

Bridge lead:
e|----------------------------------------------|
B|----------------------------------------------|
G|--12\--9~~~~---12\--9~~\5~~~------------------|
D|----------------------------------------------|
A|----------------------------------------------|
E|----------------------------------------------|

Bridge rhythm:
e|----------------------------------------------|
B|----------------------------------------------|
G|----------------------------------------------|
D|--5----------5/6\5--------4-----4-------------|
A|--3------0---3/4\3-----0--2--0--2-------------|
E|--3------0---3/4\3-----0--2--0--2-------------|
     pm.........................................|

lyrics:

Hello, my name is Suzie
and I dream for a better, better glory
god bless you and I bless you
I'm angry why don't you squeeze me
the stage is my home and I guess when I roam
things could get out of my head
god bless you and I leave you
when the weather is hot
Sucker, ah yeah !
Hello, my name is Suzie
don't spit on that floor like a loony
I'll bite you, so don't bite me
I'm angry why don't you squeeze me
the pain is my home and I guess when I roam
things blow away my thoughts
god bless you and I catch you
when the weather is hot
Sucker,  ah yeah !
you're not gonna
Hello, it's still Suzie
ready to play what you like
ready to say what you don't say
immediately to do sports
suffering a new holocaust
don't hit me, you will miss me
when the weather is hot
Sucker, yeah !
Slide and winged all the memories
sing with me this little irony
You won't escape from this reality
let us do such a sport activity, yeah
my time's too short
I missed the mark and
I can't remember why
Sucker, ah yeah!

End.
Comments