Guano Apes - Sing That Song Chords & Tabs

 

Sing That Song Chords & Tabs

Guano Apes Chords & Tabs

Version: 1 Type: Tab 0 ratings
1 star 2 stars 3 stars 4 stars 5 stars
comments

Sing That Song Tab

Band - Guano Apes		
Song - Sing That Song

Verse:
e|-----------------------------------|
B|----10-10--x-x-x-x--9--9--x-x-x-x--|
G|-----------------------------------|
D|----10-10--x-x-x-x--9--9--x-x-x-x--| x12
A|----8---8--x-x-x-x--7--7--x-x-x-x--|
E|-----------------------------------|

Prechorus:
e|------------------|
B|---------10----9--|
G|------------------|
D|-----10-10-----9--|
A|--8------8---8-7--|
E|------------------|

Chorus:
e|-----------------------|
B|-----------------------|
G|---3---2---3-----------|
D|---3---2---3----7-8-7--| x2
A|---1---0---1----7-8-7--|
E|---1---0---1----5-6-5--|

Verse:
e|-----------------------------------|
B|----10-10--x-x-x-x--9--9--x-x-x-x--|
G|-----------------------------------|
D|----10-10--x-x-x-x--9--9--x-x-x-x--| x8
A|----8---8--x-x-x-x--7--7--x-x-x-x--|
E|-----------------------------------|

Prechorus:
e|------------------|
B|---------10----9--|
G|------------------|
D|-----10-10-----9--|
A|--8------8---8-7--|
E|------------------|

Chorus:
e|-----------------------|
B|-----------------------|
G|---3---2---3-----------|
D|---3---2---3----7-8-7--| x2
A|---1---0---1----7-8-7--|
E|---1---0---1----5-6-5--|


Bridge 1:
e|-----------------------------------|
B|-----------------------------------|
G|---3-------2-------3---------------|
D|---3-(x8)--2-(x8)--3-(x7)---7-8-7--| x4
A|---1-------0-------1--------7-8-7--|
E|---1-------0-------1--------5-6-7--|

Solo 1:
e|------------------------------------------|
B|-10-(x7)-12-9-(x7)-12-13-(x7)-15-12-(x7)--|
G|------------------------------------------|
D|------------------------------------------| x4
A|------------------------------------------|
E|------------------------------------------|
[ Tab from: http://www.guitartabs.cc/tabs/g/guano_apes/sing_that_song_tab.html ]
Solo 2:
e|-------------------------------------------------|
B|-------------------------------------------------|
G|-------------------------------------------------|
D|-------------------------------------------------| 
A|---------10-(x3)-12-(x2)--------10-(x3)-9-(x2)---|
E|-8-(x3)---------------------7(x3)----------------|\
						     | x2
e|-------------------------------------------------|/
B|-------------------------------------------------|
G|-------------------------------------------------|
D|-------------------------------------------------|
A|-----10-(x3)-12-(x2)-13-(x2)-12-(x2)-10-(x2)-12--|
E|-8-(x3)------------------------------------------|

Bridge 2:
e|---------------------------------------------------------------------------------|
B|---------------------------------------------------------------------------------|
G|---------------------------------------------------------------------------------|
D|------------------------------------------------------------------------7--8--7--| x2
A|---------10-(x3)-12-(x2)--------10-(x3)-9-(x2)----------10-(x3)-12-(x2)-7--8--7--|
E|-8-(x3)---------------------7(x3)-------------------8-(x3)--------------5--6--5--|

Bridge 1:
e|-----------------------------------|
B|-----------------------------------|
G|---3-------2-------3---------------|
D|---3-(x8)--2-(x8)--3-(x7)---7-8-7--| x4
A|---1-------0-------1--------7-8-7--|
E|---1-------0-------1--------5-6-7--|

Bridge 2:
e|---------------------------------------------------------------------------------|
B|---------------------------------------------------------------------------------|
G|---------------------------------------------------------------------------------|
D|------------------------------------------------------------------------7--8--7--|
A|---------10-(x3)-12-(x2)--------10-(x3)-9-(x2)----------10-(x3)-12-(x2)-7--8--7--|
E|-8-(x3)---------------------7(x3)-------------------8-(x3)--------------5--6--5--|

End.
Comments