Guano Apes - Quietly Chords & Tabs

 

Quietly Chords & Tabs

Guano Apes Chords & Tabs

Version: 2 Type: Tab 0 ratings
1 star 2 stars 3 stars 4 stars 5 stars
comments

Quietly Tab

   
Title: Quietly
Artist: Guano Apes
Album: Walking On A Thin Line

Instrument: Guitar

Tabbed by: Paciente8159 AKA Klayman

Tuning: Standard (E A D G B E)

This is what I can get from listening the music.
It's quite simple so I hope you enjoy it!
Make sure you'r guitar is very well tuned or else the intro and verses will not sound good. ;-)


Intro: (Distorted) (Loop several times)

E|-12--11--11-----||
B|----------------||
G|--9---9---9-----||
D|----------------||
A|----------------||
E|----------------||


Verse1: Same as Intro

Chorus: (Distorted)

  C#                A                E                F#
E|----------------|----------------|----------------|----------------||
B|----------------|----------------|----------------|----------------||
G|--6--6--6666-6--|----------------|----------------|----------------||
D|--6--6--6666-6--|--7--7--7777-7--|--2--2--2222-2--|--4--4--4444-4--||
A|/-4--6--4444-4--|--7--7--7777-7--|--2--2--2222-2--|--4--4--4444-4--||
E|/-4--4--4444-4--|--5--5--5555-5--|--0--0--0000-0--|--2--2--2222-2--||

Verse2: Same as Intro

Chorus

Bridge:

Guitar I: (Slight Distorted) (FadeIn)
[ Tab from: http://www.guitartabs.cc/tabs/g/guano_apes/quietly_tab_ver_2.html ]
  G#               A                D#               E 
E|--0------0------|--0------0------|--0------0------|--0------0------||
B|-----4----------|-----4----------|-----4----------|-----4----------||
G|-------------6--|-------------6--|-------------6--|-------------6--||
D|----------------|----------------|----------------|----------------||
A|----------------|----------------|----------------|----------------||
E|----------------|----------------|----------------|----------------||


Guitar I (Slight Distorted)

  G#               A                D#               E 
E|--0------0------|--0------0------|--0------0------|--0------0------||
B|-----4----------|-----4----------|-----4----------|-----4----------||
G|-------------6--|-------------6--|-------------6--|-------------6--||
D|----------------|----------------|----------------|----------------||
A|----------------|----------------|----------------|----------------||
E|----------------|----------------|----------------|----------------||

Guitar II (Slight Distorted)
                                    (palm muted and fade in)
E|----------------|----------------|----------------|----------------||
B|--(9)*----------|--(9)*----------|----------------|----------------||
G|----------------|----------------|-8---8---8---8--|-9---9---9---9--||
D|----------------|----------------|-8---8---8---8--|-9---9---9---9--||
A|----------------|----------------|-6---6---6---6--|-9---9---9---7--||
E|----------------|----------------|----------------|----------------||

*play with feedback


Chorus till end
Comments