Guano Apes - Quietly Chords & Tabs

 

Quietly Chords & Tabs

Guano Apes Chords & Tabs

Version: 1 Type: Bass Tab 0 ratings
1 star 2 stars 3 stars 4 stars 5 stars
comments

Quietly Bass Tab

   
Band - Guano Apes		
Song - Quietly

Tuning: 5-String Standart (B E A D G)
Key:
/ - slide up
\ - slide down

Intro:
G|------------------------------|
D|------------------------------|
A|------------------------------| x2
E|0---2----------0---2----------|
B|--------2--------------2------|


Verse:
G|------------------------------|------------------------------|
D|------------------------------|------------------------------|
A|------------------------------|-------/4---------------------|
E|0---2----------0---2----------|0---2----------0---2----------|
B|--------2--------------2------|-----------------------2------|


Chorus:
G|---------------------------------------------------------------|
D|---------------------------------------------------------------|
A|---------------------------------------------------------------| x2
E|----------------5-5-5-5-5-5-5-5-----------------2-2-2-2-2-2-2-2|
B|2-2-2-2-2-2-2-2-----------------5-5-5-5-5-5-5-5----------------|


Verse 2:
G|------------------------------|-----------8-9----------------|
D|------------------------------|------------------------------|
A|------------------------------|-------/4---------------------|
E|0---2----------0---2----------|0---2----------0---2----------|
B|--------2--------------2------|-----------------------2------|

[ Tab from: http://www.guitartabs.cc/tabs/g/guano_apes/quietly_btab.html ]
Chorus:
G|---------------------------------------------------------------|
D|---------------------------------------------------------------|
A|---------------------------------------------------------------| x2
E|----------------5-5-5-5-5-5-5-5-----------------2-2-2-2-2-2-2-2|
B|2-2-2-2-2-2-2-2-----------------5-5-5-5-5-5-5-5----------------|

G|---------------------------------------------------------------|
D|------------------------------------------------4-4-4-4-4-4-4-4|
A|4-4-4-4-4-4-4-4-----------------7-7-7-7-7-7-7-7----------------| x2
E|----------------5-5-5-5-5-5-5-5--------------------------------|
B|---------------------------------------------------------------|


Interlude:
G|-----------|
D|-----------|
A|--R-E-S-T--|
E|-----------|
B|-----------|

G|----------------------------------------------------------------|
D|----------------------------------------------------------------|
A|---------------------------------6-6-6-6-6-6-6-6-7-7-7-7-7-7-7-7| x2
E|\4-4-4-4-4-4-4-4-5-5-5-5-5-5-5-5--------------------------------|
B|----------------------------------------------------------------|


Chorus:
G|---------------------------------------------------------------|
D|---------------------------------------------------------------|
A|---------------------------------------------------------------| x2
E|----------------5-5-5-5-5-5-5-5-----------------2-2-2-2-2-2-2-2|
B|2-2-2-2-2-2-2-2-----------------5-5-5-5-5-5-5-5----------------|

G|---------------------------------------------------------------|
D|------------------------------------------------4-4-4-4-4-4-4-4|
A|4-4-4-4-4-4-4-4-----------------7-7-7-7-7-7-7-7----------------| x2
E|----------------5-5-5-5-5-5-5-5--------------------------------|
B|---------------------------------------------------------------|

G|-----------|
D|-----------|
A|-----------|
E|-----------|
B|2-let-ring-|

End.
Comments