Guano Apes - Pretty In Scarlett Chords & Tabs

 

Pretty In Scarlett Chords & Tabs

Guano Apes Chords & Tabs

Version: 1 Type: Bass Tab 0 ratings
1 star 2 stars 3 stars 4 stars 5 stars
comments

Pretty In Scarlett Bass Tab

   
Band - Guano Apes		
Song - Pretty In Scarlett

Tuning: Standard (E A D G)
Key:
/ - slide up
\ - slide down

Verse:
G|---13-----|---13-----|---13-----|--------------------|
D|11--------|11--------|11--------|---13----14-16-14-13|
A|------12--|------12--|------12--|11----14------------|  x2
E|----------|----------|----------|--------------------|

G|---13-----|---13-----|---13-----|---------|
D|11--------|11--------|11--------|---13----|
A|------12--|------12--|------12--|11----14-| x2
E|----------|----------|----------|---------|

Bridge:
G|-------|-------|-------|-------|-------|-------|-------|------|
D|--6----|--6----|--6----|-------|--6----|--6----|--6----|-REST-|
A|----0--|----0--|----0--|-------|----0--|----0--|----0--|------|
E|4------|4------|4------|9--9-9-|4------|4------|4------|------|

Chorus:
G|-------------|-------------|-------------|---------------------|
D|-------------|-------------|-------------|---------------------|
A|-------------|-------------|-------------|---------------------|
E|9-99\5-55-5-5|9-99\5-55-5-5|9-99\5-55-5-5|7-77-7-77/11-11-11-11|

G|-------------|-------------|
D|-------------|-------------|
A|-------------|-------------|
E|9-99\5-55-5-5|7-77-7-77----|

Verse:
G|--------| 
D|--REST--|    
A|--------|  x3 
E|--------|    

G|-------------------|
D|--13----14-16-14-13|
A|11---14------------|
E|-------------------|

G|---13-----|---13-----|---13-----|---------| 
D|11--------|11--------|11--------|---13----|
A|------12--|------12--|------12--|11----14-|
E|----------|----------|----------|---------|

Bridge:
G|-------|-------|-------|-------|-------|-------|-------|------|
D|--6----|--6----|--6----|-------|--6----|--6----|--6----|-REST-|
A|----0--|----0--|----0--|-------|----0--|----0--|----0--|------|
E|4------|4------|4------|9--9-9-|4------|4------|4------|------|
[ Tab from: http://www.guitartabs.cc/tabs/g/guano_apes/pretty_in_scarlett_btab.html ]
Chorus:
G|-------------|-------------|-------------|--------------------|
D|-------------|-------------|-------------|--------------------|
A|-------------|-------------|-------------|--------------------|
E|9-99\5-55-5-5|9-99\5-55-5-5|9-99\5-55-5-5|7-75-7-7/11-11-11-11|

G|-------------|----------------------|--------------|----------|
D|-------------|----------------------|--------------|----------|
A|-------------|----------------------|--------------|----------|
E|9-99\5-55-5-5|9-99/12-12-12-14-12-11|9-99-\5-55-5-5|7-75-7-7--|

Interlude:
G|---13------------|---13------------|---13------------|--------------------|
D|11-------14-13-14|11-------14-13-14|11-------14-13-14|---------14-16-14-13|
A|------12---------|------12---------|------12---------|11----14------------|
E|-----------------|-----------------|-----------------|---12---------------|

G|---13------------|---13------------|---13------------|---------|
D|11-------14-13-14|11-------14-13-14|11-------14-13-14|---------|
A|------12---------|------12---------|------12---------|11----14-|
E|-----------------|-----------------|-----------------|---12----|

Chorus:
G|-------------|-------------|-------------|--------------------|
D|-------------|-------------|-------------|--------------------|
A|-------------|-------------|-------------|--------------------|
E|9-99\5-55-5-5|9-99\5-55-5-5|9-99\5-55-5-5|7-75-7-7/11-11-11-11|

G|-------------|----------------------|--------------|-----------|
D|-------------|----------------------|--------------|-----------|
A|-------------|----------------------|--------------|--------6-6|
E|9-99\5-55-5-5|9-99/12-12-12-14-12-11|9-99-\5-55-5-5|7-75-7-7-7-|

G|--------|--------|--------|--------|--------|--------|--------|--------|
D|--------|--------|--------|--------|--------|--------|--------|--------|
A|--------|--------|--------|--------|--------|--------|--------|--------|
E|99999999|55555555|99999999|55555555|99999999|55555555|77777777|77777777|

G|--------|--------|--------|--------|--------|--------|---------------|
D|--------|--------|--------|--------|--------|--------|---------------|
A|--------|--------|--------|--------|--------|--------|----2(let ring)|
E|99999999|55555555|99999999|55555555|99999999|55555555|4-0------------|

End.
Comments