Guano Apes - Plastic Mouth Chords & Tabs

 

Plastic Mouth Chords & Tabs

Guano Apes Chords & Tabs

Version: 1 Type: Bass Tab 0 ratings
1 star 2 stars 3 stars 4 stars 5 stars
comments

Plastic Mouth Bass Tab

   
Band - Guano Apes		
Song - Plastic Mouth

Tuning: 5-String Standart (B E A D G)
Key:
/ - slide up
p - pull off
h - hammer on


Intro:
G|14p13p11-13-13-13-16p14p13-14-14-14-| 
D|------------------------------------|	   
A|------------------------------------| x3   
E|------------------------------------|    
B|------------------------------------| 

G|--------------------------------|
D|13-14-16-16-13-14-14-13-11-11-11|
A|--------------------------------|
E|--------------------------------|
B|--------------------------------|

Verse:
G|11/14-11-13-13-13-16p14p13-14-14-14-|14p13p11-13-13-13-16p14p13-14-14-14-|  
D|------------------------------------|------------------------------------|  
A|------------------------------------|------------------------------------|    
E|------------------------------------|------------------------------------|    
B|------------------------------------|------------------------------------|\    
								    | x2
G|14p13p11-13-13-13-16p14p13-14-14-14-|------------------------------------|/
D|------------------------------------|13-14-16-16-13-14-14-13-11-11-11----| 
A|------------------------------------|------------------------------------|
E|------------------------------------|------------------------------------|
B|------------------------------------|------------------------------------|

Prechorus:
G|---------------------------------13----|------------------------13----|
D|11/14-11-13-13-13-13h16-13-14-14----14-|13-13-13-13h16-13-14-14----14-|
A|---------------------------------------|------------------------------|
E|---------------------------------------|------------------------------|
B|---------------------------------------|------------------------------|

G|------------------------13---------------|
D|13-13-13-13h16-13-14-14------------------|
A|---------------------------12-14-16-12-11|
E|-----------------------------------------|
B|-----------------------------------------|

Verse:
G|11/14-11-13-13-13-16p14p13-14-14-14-|14p13p11-13-13-13-16p14p13-14-14-14-|  
D|------------------------------------|------------------------------------|  
A|------------------------------------|------------------------------------|    
E|------------------------------------|------------------------------------|    
B|------------------------------------|------------------------------------|\    
								    | x2
G|14p13p11-13-13-13-16p14p13-14-14-14-|------------------------------------|/
D|------------------------------------|13-14-16-16-13-14-14-13-11-11-11----| 
A|------------------------------------|------------------------------------|
E|------------------------------------|------------------------------------|
B|------------------------------------|------------------------------------|

Prechorus:
G|---------------------------------13----|------------------------13----|
D|11/14-11-13-13-13-13h16-13-14-14----14-|13-13-13-13h16-13-14-14----14-|
A|---------------------------------------|------------------------------|
E|---------------------------------------|------------------------------|
B|---------------------------------------|------------------------------|
[ Tab from: http://www.guitartabs.cc/tabs/g/guano_apes/plastic_mouth_btab.html ]
G|------------------------13---------------|
D|13-13-13-13h16-13-14-14------------------|
A|---------------------------12-14-16-12-11|
E|-----------------------------------------|
B|-----------------------------------------|

Bridge:
G|------------|
D|------------|
A|------------|
E|4-4--2-2----|
B|----------3-|

Chorus:
G|------------------------------------------|
D|------------------------------------------|
A|------------------------------------------| x2
E|------5----------5-7-------5---4---2--4-5-|
B|2---3-----2---3------2---3----------------|


Then:
G|14p13p11-13-13-13-16p14p13-14-14-14-| 
D|------------------------------------|	   
A|------------------------------------| x3   
E|------------------------------------|    
B|------------------------------------| 

G|--------------------------------|
D|13-14-16-16-13-14-14-13-11-11-11|
A|--------------------------------|
E|--------------------------------|
B|--------------------------------|

Verse:
G|11/14-11-13-13-13-16p14p13-14-14-14-|14p13p11-13-13-13-16p14p13-14-14-14-|  
D|------------------------------------|------------------------------------|  
A|------------------------------------|------------------------------------|    
E|------------------------------------|------------------------------------|    
B|------------------------------------|------------------------------------|\    
								    | x2
G|14p13p11-13-13-13-16p14p13-14-14-14-|------------------------------------|/
D|------------------------------------|13-14-16-16-13-14-14-13-11-11-11----| 
A|------------------------------------|------------------------------------|
E|------------------------------------|------------------------------------|
B|------------------------------------|------------------------------------|

Prechorus:
G|---------------------------------13----|------------------------13----|
D|11/14-11-13-13-13-13h16-13-14-14----14-|13-13-13-13h16-13-14-14----14-|
A|---------------------------------------|------------------------------|
E|---------------------------------------|------------------------------|
B|---------------------------------------|------------------------------|

G|------------------------13---------------|
D|13-13-13-13h16-13-14-14------------------|
A|---------------------------12-14-16-12-11|
E|-----------------------------------------|
B|-----------------------------------------|

Bridge:
G|------------|
D|------------|
A|------------|
E|4-4--2-2----|
B|----------3-|

Chorus:
G|------------------------------------------|
D|------------------------------------------|
A|------------------------------------------| x2
E|------5----------5-7-------5---4---2--4-5-|
B|2---3-----2---3------2---3----------------|




Interlude

G|------------------------------------------------------|
D|--6-----7-6---6-----7-6---6-----7-6-6--4/6-4--6-7-----|
A|4---4-5-----4---4-5-----4---4-5-------------------4---|
E|------------------------------------------------------|
B|------------------------------------------------------|

G|------------------------------------------------------|
D|------------------------------------------------------|
A|------------------------------------------------------|
E|----------5-4---4---------5-4---4---------5/7-4h5-4h5-|
B|2---3-3-3-----2---2-3-3-3-----2---2-3-3-3-------------|

Bridge:
G|------------|
D|------------|
A|------------|
E|4-4--2-2----|
B|----------3-|

End.
Comments