Guano Apes - Open Your Eyes Chords & Tabs

 

Open Your Eyes Chords & Tabs

Guano Apes Chords & Tabs

Version: 4 Type: Bass Tab 0 ratings
1 star 2 stars 3 stars 4 stars 5 stars
comments

Open Your Eyes Bass Tab

*this is the updated version of my earlier tablature*

Intro:

G-------------------------------|    |------------------------| 3X
D-------------------0-0-2-2-----|    |------------0-0-2-2-----|
A-------2-2-3-3--3--------------|    |2-2-3-3--3--------------|
E-3--3-----------------------3--|    |---------------------3--|

Verse:

G"--------- |-------| 4 x  > |----------------|  <"     "4x"
D --------- |-------|        |----------------|
A 2-------- |-------|        |----2---2-------|
E ----3---- |33333--|        |3333-333-3334---|

(on 4th time 8th time 12th time and 16th play the >  < part)

Chorus:

G-------------------------------|    |------------------------| 3X
D-------------------0-0-2-2-----|    |------------0-0-2-2-----|
A-------2-2-3-3--3--------------|    |2-2-3-3--3--------------|
E-3--3-----------------------3--|    |---------------------3--|

Verse:

G"--------- |-------| 4 x  > |----------------|  <"     "4x"
D --------- |-------|        |----------------|
A 2-------- |-------|        |----2---2-------|
E ----3---- |33333--|        |3333-333-3334---|

(on 4th time 8th time 12th time and 16th play the >  < part)
[ Tab from: http://www.guitartabs.cc/tabs/g/guano_apes/open_your_eyes_btab_ver_4.html ]
Chorus:

G-------------------------------|    |------------------------| 3X
D-------------------0-0-2-2-----|    |------------0-0-2-2-----|
A-------2-2-3-3--3--------------|    |2-2-3-3--3--------------|
E-3--3-----------------------3--|    |---------------------3--|

Bridge:

---------------------| 3 x  ---------------------|
---------------------|      ---------------------|
---------------------|      ---------------------|
-3-3--3-3--3-3--3-3--|      -3-3--3-3--3-3--5-1--|

Chorus:

G-------------------------------|    |------------------------| 3X
D-------------------0-0-2-2-----|    |------------0-0-2-2-----|
A-------2-2-3-3--3--------------|    |2-2-3-3--3--------------|
E-3--3-----------------------3--|    |---------------------3--|

Chorus:

G-------------------------------|    |------------------------| 3X
D-------------------0-0-2-2-----|    |------------0-0-2-2-----|
A-------2-2-3-3--3--------------|    |2-2-3-3--3--------------|
E-3--3-----------------------3--|    |---------------------3--|

Outro:

--------------|
--------------|
--------------|
-3-3--3-3--3-3|


it is easy to play and sounds great :) 
grtz Jero
Comments