Guano Apes - Open Your Eyes Chords & Tabs

 

Open Your Eyes Chords & Tabs

Guano Apes Chords & Tabs

Version: 2 Type: Bass Tab 0 ratings
1 star 2 stars 3 stars 4 stars 5 stars
comments

Open Your Eyes Bass Tab

GUANO APES - OPEN YOUR EYES
(from the Album "Proud like agod)
[ Tab from: http://www.guitartabs.cc/tabs/g/guano_apes/open_your_eyes_btab_ver_2.html ]
Tab by Felix Pflaum 
                                                                    
Intro/Chorus (fingered)
============
|--------------------------|--------------------------|
|--------------------------|--------------------------|
|-----------2---2--2---3---|-3----3----5---5--5---7---|
|-0----0-------------------|--------------------------|
                              
Verse (slapped)
=====				(3x)
|----------------------------------||----------------------------
|-----------2----------------------||------------2---------3---3-
|----------------------------------||----------------------------
|-0---0--0------0---0---0--0--1----||--0---0--0------0---0---0---

Bridge/Outro (fingered and not very creative)
|--------------------------|
|--------------------------|
|--------------------------|
|--0---0---0---0---0---0---|

Listen to the song to get the structure
Comments