Guano Apes - Lords Of The Boards Chords & Tabs

 

Lords Of The Boards Chords & Tabs

Guano Apes Chords & Tabs

Version: 3 Type: Tab 0 ratings
1 star 2 stars 3 stars 4 stars 5 stars
comments

Lords Of The Boards Tab

these tabs are from the songbook so they are 100% right
~=play as fast as u can


Intro:

1.Guitar-clean

Riff 1
E|-~14---------~12----~14---------~17-------|
H|------------------------------------------|
G|------------------------------------------|
D|------------------------------------------|
A|------------------------------------------|
E|------------------------------------------|


E|-~14---------~12----~14------|
H|-----------------------------|
G|-----------------------------|      Riff 2 End
D|-----------------------------|
A|-----------------------------|
E|-----------------------------|


2.Guitar-clean

E|--------------------------------~5-------|
H|-~7---------~5------~7----------~5-------|
G|-~7---------~6------~7----------~6-------|
D|-~7---------~7------~7-------------------|
A|-----------------------------------------|
E|-----------------------------------------|


                                  full distotion
E|-------------------------------------|
H|-~7---------~5------~7---------------|
G|-~7---------~6------~7---------------|
D|-~7---------~7------~7---------3---2-|
A|-------------------------------5---4-|
E|-------------------------------5---4-|

both guitars are playing together.


E|------------------------------------------------------------|
H|------------------------------------------------------------|
G|------------------------------------------------------------|
D|-4---4-----4---4---4---4---4---4---4-----4---4---4---4--5---|
A|-4---4-----4---4---4---4---4---4---4-----4---4---4---4--5---|
E|-2-0-2-----2-0-2-0-2-0-2-0-2-0-2-0-2-----2-0-2-0-2-0-2--3---|

E|------------------------------------------------------------|
H|------------------------------------------------------------|
G|------------------------------------------------------------|
D|-4---4-----4---4---4---4---4---4---4-----4---4--5----4------|
A|-4---4-----4---4---4---4---4---4---4-----4---4--5----4------|
E|-2-0-2-----2-0-2-0-2-0-2-0-2-0-2-0-2-----2-0-2--3----2------|

E|------------------------------------------------------------|
H|------------------------------------------------------------|
G|------------------------------------------------------------|
D|-4---4-----4---4---4---4---4---4---4-----4---4---4---4--5---|
A|-4---4-----4---4---4---4---4---4---4-----4---4---4---4--5---|
E|-2-0-2-----2-0-2-0-2-0-2-0-2-0-2-0-2-----2-0-2-0-2-0-2--3---|

E|-------------------------------------------------------------|
H|-------------------------------------------------------------|
G|-------------------------------------------------------------|
D|-4---4-----4---4---4---4---4---4---4-----4---4--5----4----6--|
A|-4---4-----4---4---4---4---4---4---4-----4---4--5----4----6--|
E|-2-0-2-----2-0-2-0-2-0-2-0-2-0-2-0-2-----2-0-2--3----2----4--|

Verse:
[ Tab from: http://www.guitartabs.cc/tabs/g/guano_apes/lords_of_the_boards_tab_ver_3.html ]
slightly muted:

repeat 6 times

D|--------8-----9-----8---------8-----9-----8-----|
A|-----6-----6-----7-----6---------6-----7-----6--|
E|--4------------------------4--------------------|

Bridge:
And now i'm flying...

1.Guitar-clean

E|-~14---------~12----~14---------~17-------|
H|------------------------------------------|
G|------------------------------------------|
D|------------------------------------------|
A|------------------------------------------|
E|------------------------------------------|


E|-~14---------~12----~14------|
H|-----------------------------|
G|-----------------------------|
D|-----------------------------|
A|-----------------------------|
E|-----------------------------|


2.Guitar-clean

E|--------------------------------~5-------|
H|-~7---------~5------~7----------~5-------|
G|-~7---------~6------~7----------~6-------|
D|-~7---------~7------~7-------------------|
A|-----------------------------------------|
E|-----------------------------------------|


E|-------------------------------|
H|-~7---------~5------~7---------|
G|-~7---------~6------~7---------|
D|-~7---------~7------~7---------|
A|-------------------------------|
E|-------------------------------|


Chorus:

E|------------------------------------------------------------|
H|------------------------------------------------------------|
G|------------------------------------------------------------|
D|-4---4-----4---4---4---4---4---4---4-----4---4---4---4--5---|
A|-4---4-----4---4---4---4---4---4---4-----4---4---4---4--5---|
E|-2-0-2-----2-0-2-0-2-0-2-0-2-0-2-0-2-----2-0-2-0-2-0-2--3---|

E|------------------------------------------------------------|
H|------------------------------------------------------------|
G|------------------------------------------------------------|
D|-4---4-----4---4---4---4---4---4---4-----4---4--5----4------|
A|-4---4-----4---4---4---4---4---4---4-----4---4--5----4------|
E|-2-0-2-----2-0-2-0-2-0-2-0-2-0-2-0-2-----2-0-2--3----2------|

E|------------------------------------------------------------|
H|------------------------------------------------------------|
G|------------------------------------------------------------|
D|-4---4-----4---4---4---4---4---4---4-----4---4---4---4--5---|
A|-4---4-----4---4---4---4---4---4---4-----4---4---4---4--5---|
E|-2-0-2-----2-0-2-0-2-0-2-0-2-0-2-0-2-----2-0-2-0-2-0-2--3---|

E|-------------------------------------------------------------|
H|-------------------------------------------------------------|
G|-------------------------------------------------------------|
D|-4---4-----4---4---4---4---4---4---4-----4---4--5----4----6--|
A|-4---4-----4---4---4---4---4---4---4-----4---4--5----4----6--|
E|-2-0-2-----2-0-2-0-2-0-2-0-2-0-2-0-2-----2-0-2--3----2----4--|


end i hope u'll enjoy it
Comments