Guano Apes - Living In A Lie Chords & Tabs

 

Living In A Lie Chords & Tabs

Guano Apes Chords & Tabs

Version: 2 Type: Tab 0 ratings
1 star 2 stars 3 stars 4 stars 5 stars
comments

Living In A Lie Tab

Band - Guano Apes
Song - Living in a Lie
[ Tab from: http://www.guitartabs.cc/tabs/g/guano_apes/living_in_a_lie_tab_ver_2.html ]
Intro/Verse:
e|--------------------|--------------------|-----------|---------------0--|
B|--------------------|--------------------|-----------|---------------3--|
G|-----0---------0----|------0---------0---|------0----|--0-------0----0--|
D|--------------------|--------------------|-----------|------------------|
A|---2---3p2-2h3---3--|----2---3p2-2h3---3-|--3-2---3--|----3-3-2---3-----|
D|-0------------------|--0-----------------|-----------|------------------|

Bridge:
e|-0-0-0-0---|
B|-3-3-3-3---|
G|-0-0-0-0---|
D|-0-0-0-0---|
A|-3-3-3-3---|
D|-----------|

Chorus:
e|-------------------------------|
B|-------------------------------|
G|-5--4----4--5---4--5-----4--5--|
D|-5--4----4--5---4--5-----4--5--|
A|-3--2--0-2--3---2--3--0--2--3--|
D|-------------------------------|

e|----------------------0--|
B|----------------------2--|
G|-5--4----4--5---4--5--2--|
D|-5--4----4--5---4--5--2--|
A|-3--2--0-2--3---2--3--0--|
D|-------------------------|
Comments