Guano Apes - Kiss The Dawn Chords & Tabs

 

Kiss The Dawn Chords & Tabs

Guano Apes Chords & Tabs

Version: 1 Type: Bass Tab 0 ratings
1 star 2 stars 3 stars 4 stars 5 stars
comments

Kiss The Dawn Bass Tab

Band - Guano Apes		
Song - Kiss The Dawn

Intro:
G |-------------------------------|
D |-------------------------------|
A |11111-100000-0-----------------| x2
Eb|--------------33333-322222-0---|

Verse 1:
G |-------------------------------|
D |-------------------------------|
A |11111-100000-0-----------------| x2
Eb|--------------33333-322222-0---|

Verse 2:
G |-------------------------------|
D |-------------------------------|
A |11111-133333-3-----------------|
Eb|--------------33333-322222-0---|

G |-------------------------------|
D |-------------------------------|
A |11111-100000-0-----------------| x3
Eb|--------------33333-322222-0---|

G |-------------------------------|
D |-------------------------------|
A |11111-133333-3-----------------|
Eb|--------------33333-322222-0---|
[ Tab from: http://www.guitartabs.cc/tabs/g/guano_apes/kiss_the_dawn_btab.html ]
G |-------------------------------|
D |-------------------------------|
A |11111-100000-0-----------------|
Eb|--------------33333-322222-0---|

Chorus:
G |-------------------------------|
D |-------------------------------|
A |1*-4*-1*----1*-4*-2*-----------|
Eb|---------3*--------------------|

Verse 3:
G |-------------------------------|
D |-------------------------------|
A |11111-100000-0-----------------| x4
Eb|--------------33333-322222-0---|

G |-------------------------------|
D |-------------------------------|
A |11111-133333-3-----------------|
Eb|--------------33333-322222-0---|


G |-------------------------------|
D |----------------------11111-3--|
A |11111-133333-3-44444-4---------|
Eb|-------------------------------|

Chorus:
G |-------------------------------|
D |-------------------------------|
A |1*-4*-1*----1*-4*-2*-----------| x4
Eb|---------3*--------------------|
Comments