Guano Apes - High Chords & Tabs

 

High Chords & Tabs

Guano Apes Chords & Tabs

Version: 1 Type: Tab 0 ratings
1 star 2 stars 3 stars 4 stars 5 stars
comments

High Tab

Tabbed by Maho

Guano Apes - High

Tuning Low - High: DADGBE

e|-----------------------------------------------|
b|-----------------------------------------------|
g|---------6-6-8-8-------------------------------|
d|-----8-8---------6-8-9-9-----8-8---6-6h8-------|
a|-6-6---------------------7-7-----7-------------|
d|-----------------------------------------------|
[ Tab from: http://www.guitartabs.cc/tabs/g/guano_apes/high_tab.html ]
e|-----------------------------------------------|
b|-----------------------------------------------|
g|---------6-6-8-8-------------------------------|
d|-----8-8---------6-8-8888-888------------------|
a|-6-6-----------------6666-666------------------|
d|---------------------6666-666------------------|

that's basically all i have for the intro for now. Listen to the song for the timing. 
not exactly sure if this is right... but it sounds good to me. AIM me at sundown4r7 if you 
a fix. Thanks.
Comments