Guano Apes - High Chords & Tabs

 

High Chords & Tabs

Guano Apes Chords & Tabs

Version: 1 Type: Bass Tab 0 ratings
1 star 2 stars 3 stars 4 stars 5 stars
comments

High Bass Tab

   
Band - Guano Apes		
Song - High

Tuning: 5-String Standart (B E A D G)

Key:
/ - slide up
\ - slide down
h - hammer on
x - dead note
S - slap
P - pop
T - tap (left hand)

Intro:
G|------------|
D|------------|
A|------------|
E|0000-0000-\-|
B|------------|

G|----------------------------------------------------------|
D|-----------4-6------/6666---------------------------------|
A|-----/7777-------------------------/7777-7-7--------------|
E|0000-----------4444-------2-4-0000-----------4444-2-4-2-1-|
B|----------------------------------------------------------|

G|----------------------------------------------------------|
D|-----------4-6------/6666-6-6-----------------------------|
A|-----/7777-------------------------/7777-7-7--------------|
E|0000-----------4444-----------0000-----------4444-4444-4\-|
B|----------------------------------------------------------|

Verse:

  S S S S S S S S S S S S S S S S S S S S   S S S S S S S S S S S S S S S S S 
G|----------------------------------------|-----------------------------------------|
D|----------------------------------------|-----------------------------------------|
A|----------------------------------------|------------------------------------6h7h9|
E|----------------------------------------|-----------------------------------------|
B|4-x-4-x-4-x-4-x-4-4-5-x-5-x-5-x-5-x-5-5-|4-x-4-x-4-x-4-x-4-4-5-x-5-x-5-x-5-x------|

  S S S S S S S S S S S S S S S S S S S S  S S S S S S S S S S S S S S S S S S S S
G|----------------------------------------|----------------------------------------|
D|----------------------------------------|----------------------------------------|
A|----------------------------------------|----------------------------------------|
E|----------------------------------------|----------------------------------------|
B|4-x-4-x-4-x-4-x-4-4-5-x-5-x-5-x-5-x-5-5-|4-x-4-x-4-x-4-x-4-4-5-x-5-x-5-x-5-x-5-2-|

  S S S S S S S S S S S S S S S S S S        S S S S S S S S S S S S S S S S S S S S
G|------------------------------------------|---------------------------------------|
D|------------------------------------------|---------------------------------------|
A|------------------------------------6h7h9-|---------------------------------------|
E|------------------------------------------|---------------------------------------|
B|4-x-4-x-4-x-4-x-4-4-5-x-5-x-5-x-5-x-------|4-x-4-x-4-x-4-x-4-4-5-x-5-x-5-x-5-x-5-2|

  S S S S S S S S S S S S S S S S S S S S  S S S S S S S S S S 
G|----------------------------------------|--------------------------------|
D|----------------------------------------|--------------------------------|
A|----------------------------------------|--------------------------------|
E|----------------------------------------|--------------------0000-0000-\-|
B|4-x-4-x-4-x-4-x-4-4-5-x-5-x-5-x-5-x-5-5-|4-x-4-x-4-x-4-x-4-4-------------|


Chorus:
G|----------------------------------------------------------|
D|-----------4-6------/6666---------------------------------|
A|-----/7777-------------------------/7777-7-7--------------|
E|0000-----------4444-------2-4-0000-----------4444-2-4-2-1-|
B|----------------------------------------------------------|

G|----------------------------------------------------------|
D|-----------4-6------/6666-8-9\-------------------/6666-6-6|
A|-----/7777-------------------------/7777-7-7--------------|
E|0000-----------4444-----------0000-----------4444---------|
B|----------------------------------------------------------|


Verse:
[ Tab from: http://www.guitartabs.cc/tabs/g/guano_apes/high_btab.html ]
  S S S S S S S S S S S S S S S S S S S S  S S S S S S S S S S S S S S S S S S S S
G|----------------------------------------|----------------------------------------|
D|----------------------------------------|----------------------------------------|
A|----------------------------------------|----------------------------------------|
E|----------------------------------------|----------------------------------------|
B|4-x-4-x-4-x-4-x-4-4-5-x-5-x-5-x-5-x-5-5-|4-x-4-x-4-x-4-x-4-4-5-x-5-x-5-x-5-x-5-2-|

  S S S   P   P P P P S S S S S S S S S S  S S S   P   P P P P
G|----------------------------------------|--------------------------------|
D|--------6h8-6-x-8-6---------------------|--------4h6-4-x-6-4-------------|
A|----------------------------------------|--------------------------------|
E|----------------------------------------|--------------------0000-0000-\-|
B|4-x-4---------------5-x-5-x-5-x-5-x-5-5-|4-x-4---------------------------|

Chorus:
G|----------------------------------------------------------|
D|-----------4-6------/6666---------------------------------|
A|-----/7777-------------------------/7777-7-7--------------|
E|0000-----------4444-------2-4-0000-----------4444-2-4-2-1-|
B|----------------------------------------------------------|

G|-----------------------------------------------------|
D|-----------4-6------/6666-8-9\-----------------------|
A|-----/7777--------------------5555-5555--5555-5555---|
E|0000-----------4444----------------------------------|
B|---------------------------------------------------\-|


Interlude:

  S S P   P P P S S  S S S  S S P   P P P S S  SS T SP P
G|-------------------------|-------------------------------|
D|----6h8-6-8-6------------|----6h8-6-8-6------------9-8---|
A|--------------7-7--------|--------------7-7--------------|
E|-------------------6-6---|-------------------6x-x-x------|
B|4-4--------------------6-|4-4--------------------------6-|

  S S P   P P P S S  S S S  S S P   P P P S
G|-------------------------|---------------------|
D|----6h8-6-8-6------------|----6h8-6-8-6--------|
A|--------------7-7--------|--------------7------|
E|-------------------6-6---|---------------------|
B|4-4--------------------6-|4-4------------------|

G|----------------------------------------------------------|
D|--------------------/6666-6-6-----------------------------|
A|-----/7777-7-7---------------------/7777-7-7--------------|
E|0000-----------4444-----------0000-----------4444-2-4-2-1-|
B|----------------------------------------------------------|

G|----------------------------------------------------------|
D|--------------------/6666-6-6-----------------------------|
A|-----/7777-7-7---------------------/7777-7-7--------------|
E|0000-----------4444-----------0000-----------4444-4444-4\-|
B|----------------------------------------------------------|

G|------------------------------------------------------------|
D|--------------------/6666-6-6---------------------/6666-8-9\|
A|-----/7777-7-7---------------------/7777-7-7----------------|
E|0000-----------4444-----------0000-----------4444-----------|
B|------------------------------------------------------------|

G|-----------------------------------------------------|
D|--------------------/6666-6-6------------------------|
A|-----/7777-7-7----------------5555-5555--5555-5555---|
E|0000-----------4444----------------------------------|
B|---------------------------------------------------\-|

Outro:
G|-----------|-----------|-----------|-----------|
D|-----------|-----------|-----------|-----------|
A|-----------|-----------|-----------|-----------|
E|-----------|-----------|-----------|-----------|
B|3333-3333--|3333-3333--|3333-3333--|3333-3333--|
Comments