Guano Apes - Dont Turn Your Back On Me Chords & Tabs

 

Dont Turn Your Back On Me Chords & Tabs

Guano Apes Chords & Tabs

Version: 1 Type: Tab

Dont Turn Your Back On Me Tab

Artist: Guano Apes
Song: Don't turn your back on me
Tabbed by: Balcescu Florin aka DEX
Email: eudexter2001@yahoo.com




Standard tunning


[Intro/Verse]:
   
e|------------------5-----------------------------------|
B|--------6-----------6-----------------------10--------|
G|------------------------------10----------------10----|
D|------7---7-----7----------8------8------7------------|
A|---5---------5----------8-------------7---------------|
E|------------------------------------------------------|
Boy you're killing me, with your funny smile ....etc

[Pre-chorus]:
[ Tab from: http://www.guitartabs.cc/tabs/g/guano_apes/dont_turn_your_back_on_me_tab.html ]
e|-----------------|
B|-----------------|
G|---7~---7-5------| X 4
D|---7~---7-5------|
A|---5~---5-3------|
E|-----------------|
I wonder if you let me in ....etc

[Chorus]:

Guitar 1
e|------------------------|
B|------------------------|
G|---7---10---------------|  Listen song for rythm
D|---7---10---10---8------|
A|---5---8----10---8------|
E|------------8----6------|

Guitar 2
e|------------------------|
B|------------------------|
G|---18b--19b--18b--19b---|  Listen song for getting the bend right
D|------------------------|
A|------------------------|
E|------------------------|
Don't you turn your back on me....etc