Guano Apes - Crossing The Deadline Chords & Tabs

 

Crossing The Deadline Chords & Tabs

Guano Apes Chords & Tabs

Version: 1 Type: Bass Tab 0 ratings
1 star 2 stars 3 stars 4 stars 5 stars
comments

Crossing The Deadline Bass Tab

   
Band - Guano Apes		
Song - Crossing the Deadline
Album - Proud like a God

Tuning: Standart (E A D G)
h - hammer on

Verse:
G|-----------|
D|5-4-2------|
A|------5-2-2| x17
E|-----------|

Bridge:
G|-----------|-----------|
D|-----------|-----------|
A|2-2--0--1--|2-2--1--2--| x4
E|-----------|-----------|

Chorus:
G|---|   |------------|------------|
D|---|   |------------|------------|
A|-0-|   |2--2-2-2--2-|0--0-0-0--0-| x8
E|---|   |------------|------------|

Interlude:
G|-------------------|   |---|
D|-------------------|   |---|
A|h2-0-h2-0-h2-0-h2-0|   |2-2| x4
E|-------------------|   |---|

Verse:
G|-----------|
D|5-4-2------|
A|------5-2-2| x12
E|-----------|
[ Tab from: http://www.guitartabs.cc/tabs/g/guano_apes/crossing_the_deadline_btab.html ]
Bridge:
G|-----------|-----------|
D|-----------|-----------|
A|2-2--0--1--|2-2--1--2--| x4
E|-----------|-----------|

Chorus:
G|---|   |------------|------------|
D|---|   |------------|------------|
A|-0-|   |2--2-2-2--2-|0--0-0-0--0-| x8
E|---|   |------------|------------|

Interlude:
G|-------------------|
D|-------------------|
A|h2-0-h2-0-h2-0-h2-0| x4
E|-------------------|

Chorus:
G|---|   |------------|------------|
D|---|   |------------|------------|
A|-0-|   |2--2-2-2--2-|0--0-0-0--0-| x8
E|---|   |------------|------------|

Interlude:            
G|-------------------|
D|-------------------|
A|h2-0-h2-0-h2-0-h2-0|
E|-------------------|


End:
G|-----|
D|-----|
A|22-0-|
E|-----|
Comments