Guano Apes - Break The Line Chords & Tabs

 

Break The Line Chords & Tabs

Guano Apes Chords & Tabs

Version: 1 Type: Tab 0 ratings
1 star 2 stars 3 stars 4 stars 5 stars
comments

Break The Line Tab

Band: Guano Apes
Song: Break The Line
Tabbed by : JuliusLT
Tuning: Standart (EADGBE)

Intro: (Part 1)
E ---------------------------------------------------
B ---------------------------------------------------
G ---88888888-(listen to the Track to get the rhythm)
D ---88888888---------------------------------------- gradually increase 
A ---66666666----------------------------------------       volume
E ---------------------------------------------------

Intro: (Part 2)
E ------------------------------|
B ------------------------------|
G -8888~8888--8888~8888-11~--6~-|
D -8888~8888--8888~8888-11~--6~-|
A -6666~6666--6666~6666-9~~--4~-|
E ------------------------------|

E -----------------------------------|
B -----------------------------------|
G -8888~8888--8888~8888--------------|
D -8888~8888--8888~8888-9~--8~---6~~-|
A -6666~6666--6666~6666-9~--8~---6~~-|
E ----------------------7~--6~---4~~-|

Verse:
E ---------------|
B ---------------|
G ---------------|
D -6--8--9-9-9-8-|
A ---------------|
E ---------------|

Pre Chorus:
E ---------------|
B ---------------|
G ---------------|
D -6--8-999-8----|4x
A -6--8-999-8----|
E -4--6-777-6----|
[ Tab from: http://www.guitartabs.cc/tabs/g/guano_apes/break_the_line_tab.html ]
Chorus:
(1 Part)
E ------------------------------|
B ------------------------------|
G -8888~8888--8888~8888-11~--6~-|
D -8888~8888--8888~8888-11~--6~-|
A -6666~6666--6666~6666-9~~--4~-|
E ------------------------------|
(2 Part)
E ----------------------------------------|
B ----------------------------------------|
G -8888~8888--8888~8888-------------------|
D -8888~8888--8888~8888-9~~---6~~----9-11-|
A -6666~6666--6666~6666-9~~---6~~----9-11-|
E ----------------------7~~---4~~----7-9--|
(3 Part)
E ------------------------------|
B ------------------------------|
G -8888~8888--8888~8888-11~--6~-|
D -8888~8888--8888~8888-11~--6~-|
A -6666~6666--6666~6666-9~~--4~-|
E ------------------------------|
(4 Part)
E ---------------------------------------------|
B ---------------------------------------------|
G -8888~8888--8888~8888------------------------|
D -8888~8888--8888~8888-9~~---11~~----9-8--6~~-|
A -6666~6666--6666~6666-9~~---11~~----9-8--6~~-|
E ----------------------7~~---9~~~----7-6--4~~-|


Verse:

Pre Chorus:

Chorus:(1;2 and 3 parts same as first Chorus)
Last (4) Part
E ------------------------------------------|
B ------------------------------------------|
G -8888~8888--8888~8888---------------------|
D -8888~8888--8888~8888-9~~---11~~----9-11--|
A -6666~6666--6666~6666-9~~---11~~----9-11--|
E ----------------------7~~---9~~~----7-9---|

Bridge:
E -------------------------|
B -------------------------|
G -------------------------|
D -13~~--10~~--6~~--10~~---|
A -13~~--10~~--6~~--10~~---|
E -11~~--8~~~--4~~--8~~~---|

E -----------------------------|
B -----------------------------|
G -----------------------------|
D -13~~--10~~--6~~--10~~--6~~~-|
A -13~~--10~~--6~~--10~~--6~~~-|
E -11~~--8~~~--4~~--8~~~--4~~~-|

Then play this
E ---------------|
B ---------------|
G ---------------|
D -6--8--9-9-9-8-|
A ---------------|
E ---------------|

Pre Chorus:

Chorus:(Same as [2]Chorus )

Outro:
E ------------------------------------------------------|
B ------------------------------------------------------|
G -----10------7-----10----7-8---------10-----7-----10--|
D ---8-------5-----8-----5-----5-----8------5-----8-----|
A -6-------3-----6------3----------6------3-----6-------|
E ------------------------------------------------------|


Ok!!- The END [Enjoy it!!!]
Comments