Guano Apes - Anne Claire Chords & Tabs

 

Anne Claire Chords & Tabs

Guano Apes Chords & Tabs

Version: 1 Type: Bass Tab 0 ratings
1 star 2 stars 3 stars 4 stars 5 stars
comments

Anne Claire Bass Tab

   
Band - Guano Apes
Song - Anne Claire 
Album - Donīt give me names

Tuning: 5-String Standart (B E A D G)

S - slap
P - pop
x - dead note
~ - let ring
\ - slide down
h - hammer on
p - pull off


Intro:

  S SP  S P P     S  S SP  S P P     S  S SP  S P P     S  S SP  S P P     S

G|---11---x-10h11---|---11---x-10h11---|---11---x-13~-----|---11---x-10h11---|
D|---11---x-11~-----|---11---x-11~-----|---11---x-11~-----|---11---x-11~-----|
A|------------------|------------------|------------------|------------------|
E|9-x---x---------7-|9-x---x---------7-|9-x---x---------7-|9-x---x---------7-|
B|------------------|------------------|------------------|------------------|

  S SP  S P P     S  S SP  S P P     S  S SP  S P P     S  S SP  S P P P P

G|---11---x-10h11---|---11---x-10h11---|---11---x-13~-----|---11---x-8-9-8---|
D|---11---x-11~-----|---11---x-11~-----|---11---x-11~-----|---11---x-8-9-8---|
A|------------------|------------------|------------------|------------------|
E|9-x---x---------7-|9-x---x---------7-|9-x---x---------7-|9-x---x-----------|
B|------------------|------------------|------------------|------------------|


Verse:

  S SP  S P P     S       S SP  S P P

G|---11---x-10h11---| x7 |---11---x-10h11p10h11p10h11|
D|---11---x-11~-----|    |---11---x-11~--------------|
A|------------------|    |---------------------------|
E|9-x---x---------7-|    |9-x---x--------------------|
B|------------------|    |---------------------------|

  S SP  S P P     S       S SP  S    

G|---11---x-10h11---| x7 |---11--------|
D|---11---x-11~-----|    |---11--------|
A|------------------|    |-----------2-|
E|9-x---x---------7-|    |9-x---x------|
B|------------------|    |-------------|


Chorus:

G|------------------------| x3 |-------------------------|
D|------------------------|    |-------------------------|
A|4--------------------6--|    |4------------------------|
E|---4--5--4\-0--4--5-----|    |---4--5--4\-0--4--5--11--|
B|------------------------|    |-------------------------|

[ Tab from: http://www.guitartabs.cc/tabs/g/guano_apes/anne_claire_btab.html ]
Bridge:

  S SP  S P P     S  S SP  S P P     S  S SP  S P P     S  S SP  S P P P P

G|---11---x-10h11---|---11---x-10h11---|---11---x-13~-----|---11---x-8-9-8---|
D|---11---x-11~-----|---11---x-11~-----|---11---x-11~-----|---11---x-8-9-8---|
A|------------------|------------------|------------------|------------------|
E|9-x---x---------7-|9-x---x---------7-|9-x---x---------7-|9-x---x-----------|
B|------------------|------------------|------------------|------------------|


Verse:

  S SP  S P P     S       S SP  S P P

G|---11---x-10h11---| x7 |---11---x-10h11p10h11p10h11|
D|---11---x-11~-----|    |---11---x-11~--------------|
A|------------------|    |---------------------------|
E|9-x---x---------7-|    |9-x---x--------------------|
B|------------------|    |---------------------------|

  S SP  S P P     S       S SP      

G|---11---x-10h11---| x3 |---11--------|
D|---11---x-11~-----|    |---11--------|
A|------------------|    |-------2-4-4-|
E|9-x---x---------7-|    |9-x----------|
B|------------------|    |-------------|


Chorus:

G|------------------------| x4 |------------------------| x3 |----------------------------|
D|---6--7--6\-------------|    |------------------------|    |----------------------------|
A|4--------------------6--|    |---------------------6--|    |----------------------------|
E|------------0--4--5-----|    |---4--5--4\-0--4--5-----|    |---4--5--4\-0-5-4--5-4--5-4-|
B|------------------------|    |2-----------------------|    |2---------------------------|


Interlude:

G|----------------| x7 |----------------|
D|----------------|    |----------------|
A|----------------|    |----------------|
E|--5-4-----5-4---|    |--5-4----5-4----|
B|2-----5-2-----5-|    |2---------------|


Chorus:

G|------------------------| x8 
D|------------------------|    
A|---------------------6--|    
E|---4--5--4\-0--4--5-----|    
B|2-----------------------|    


Outro

G|------|
D|------|
A|------|
E|------|
B|2~----|

G|-----------|
D|------4h6--|repeat
A|-----------|until
E|-----------|end
B|2---2------|
Comments