Grung Paal - You Never Come Back Chords & Tabs

 

You Never Come Back Chords & Tabs

Grung Paal Chords & Tabs

Version: 1 Type: Bass Tab 0 ratings
1 star 2 stars 3 stars 4 stars 5 stars
comments

You Never Come Back Bass Tab

song title: you never come back
Artist: paal grung

intro:
---0-0-0-------------------------2-2-5-5-
----------5-5-5-5-----------------3-4-4--
-----------------0-0-0-------------------
------------------------5-5-5-5----------
[ Tab from: http://www.guitartabs.cc/tabs/g/grung_paal/you_never_come_back_btab.html ]
solo:
--9-9-9-9-9-6--4-3--------------------
---9-------5----4-2-------------------
-------------------------3-3-3-3------
--------------------1-1-1-------1-1-1-
the end:
-7-7---------------------------
--6-6-5-5-----------------0----
---------5-5-0-0-0-----0-0-----
----------5-------0-0-0--------
good bye and i hope you like it.
Comments