Grung Paal - Like Before Chords & Tabs

 

Like Before Chords & Tabs

Grung Paal Chords & Tabs

Version: 1 Type: Tab 0 ratings
1 star 2 stars 3 stars 4 stars 5 stars
comments

Like Before Tab

Song Title: Like before
Artist: paal grung
[ Tab from: http://www.guitartabs.cc/tabs/g/grung_paal/like_before_tab.html ]
--0-0-0-0----------------------------------------
---0-0-0-0---------------------------------------
----------0-4-4-2--------------------------------
--------------------------1-1--------------------
-------------------8-8-7-7-2-2-3-2-3-3-2-3-2-3-2-
------------------7-7-8-8------------------------

--0-0-0-0------------------------
-----------0-0-0-----------------
--0-0-0-0--2-2-2-----------------
---------------------------------
---------------------------------
---------------------------------
i hope you lik it.
Comments