Grung Paal - Halloween Chords & Tabs

 

Halloween Chords & Tabs

Grung Paal Chords & Tabs

Version: 1 Type: Tab 0 ratings
1 star 2 stars 3 stars 4 stars 5 stars
comments

Halloween Tab

paal grung
song: Halloween.

intro:
--------------------------------------------------
--------------------------------------------------
--------------------------------------------------
--------------------------------------------------
--------------------------------7-7-7-7-5--3------
--3-5--7-8-5-8--8-4-2-3-2-1-4-3-5-----------------
[ Tab from: http://www.guitartabs.cc/tabs/g/grung_paal/halloween_tab.html ]
solo:
----------------------------------------------------------
----------------------------------------------------------
----------------------------------------------------------
--5--5-3---7---------------------------------------------- 2 times
----3---3-6--8-----------3--4---3--2-2-2-4-7-5-5----------
---------------6-8-9-4-7---6---6--5-4-4---5-7-7-7-5-------

the end:
-4--4-5-1--------2-2-4-1-0-0-------
--6--2-2--3-4-4-4-----3---0--------
-----------------------------------
-----------------------------------
-----------------------------------
-----------------------------------

then you have it and i hope you like it.
good bye.



























































Comments