Grouplove - Shark Attack Chords & Tabs

 

Shark Attack Chords & Tabs

Grouplove Chords & Tabs

Version: 1 Type: Bass Tab 0 ratings
1 star 2 stars 3 stars 4 stars 5 stars
comments

Shark Attack Bass Tab

   
-------------------------------------------------------------------------------
                             Shark Attack - Grouplove
-------------------------------------------------------------------------------
Although this song doesn't actually have bass the whole time, this is how i play it.
Tuning: E A D G

Intro:
First time through the chords, its just acoustic guitar. Bass comes in with drums:
G|---------------------------------------------------------------------------|
D|-------3-4-6--3-6-4--3-4s11-11-8-------3-4-6--3-6-3------------------------|
A|----4-------------------------------4---------------6-6--------------------|
E|---------------------------------------------------------------------------|

"I left my body in a sea..."
G|----------------------------------------------------------------------------------|
D|----------------------------------------------------------------------------------|
A|----4--------4--------4----------------4--------4--------4------------------------|
E|----------------------------------------------------------------------------------|

"Were laughing like..."
G|---------------------------------------------------------------------------|
D|---------4-4--3-3----------------------------------------------------------|
A|----4-4------------6-6-----------------------------------------------------| x4
E|---------------------------------------------------------------------------|

"break it down..."
G|--------6-------6-3--------------------------------------------------------|
D|---------------------------------------------------------------------------|
A|----4-4---4---4------------------------------------------------------------| x3
E|---------------------------------------------------------------------------|

G|--------6------------------------------------------------------------------|
D|-------------3-3-3-3-4-----------------------------------------------------|
A|----4-4---4----------------------------------------------------------------|
E|---------------------------------------------------------------------------|

"I am what I am..."
G|---------------------------------------------------------------------------|
D|------------------------------------3-3-3-3-3-3-3-3-4-3-4-3-4-3------------|
A|----1-1-1-1-1-1-1-1-4-4-4-4-4-4-4-4-----------------------------4----------| x3
E|---------------------------------------------------------------------------|

G|---------------------------------------------------------------------------|
D|------------------------------------3-3-3-3-3-3-3-3-4-4-4-4-4-4-3-3-6------|
A|----1-1-1-1-1-1-1-1-4-4-4-4-4-4-4-4----------------------------------------|
E|---------------------------------------------------------------------------|

Silence for one measure of acoustic guitar then play a bass fill to lead into the second verse:
G|----6-3---3----------------------------------------------------------------|
D|--------6---6-4-6-4-3-4-3--------------------------------------------------|
A|--------------------------6------------------------------------------------|
E|---------------------------------------------------------------------------|

"So as we lay upon..."
G|---------------------------------------------------------------------------|
D|---------4-4--3-3----------------------------------------------------------|
A|----4-4------------6-6-----------------------------------------------------| x4
E|---------------------------------------------------------------------------|

lead into 2nd Chorus:
G|---------------------------------------------------------------------------------|
D|----33-----33--------------------------------------------------------------------|
A|-------66------66----------------------------------------------------------------|
E|---------------------------------------------------------------------------------|
[ Tab from: http://www.guitartabs.cc/tabs/g/grouplove/shark_attack_btab.html ]
"break it down..."
G|--------6-------6-3--------------------------------------------------------|
D|---------------------------------------------------------------------------|
A|----4-4---4---4------------------------------------------------------------| x3
E|---------------------------------------------------------------------------|

G|--------6------------------------------------------------------------------|
D|-------------3-3-3-3-4-----------------------------------------------------|
A|----4-4---4----------------------------------------------------------------|
E|---------------------------------------------------------------------------|

"I am what I am..."
G|---------------------------------------------------------------------------|
D|------------------------------------3-3-3-3-3-3-3-3-4-3-4-3-4-3------------|
A|----1-1-1-1-1-1-1-1-4-4-4-4-4-4-4-4-----------------------------4----------| x3
E|---------------------------------------------------------------------------|

G|---------------------------------------------------------------------------|
D|------------------------------------3-3-3-3-3-3-3-3-4-4-4-4-4-4-3-3-6------|
A|----1-1-1-1-1-1-1-1-4-4-4-4-4-4-4-4----------------------------------------|
E|---------------------------------------------------------------------------|

"Swim Swim Swim..."
Below is the melody, but you can also just mess around in a C# scale. I have yet to tab 
out the actual part in the song.
G|---------------------------------------------------------------------------|
D|-----------------3--4-3-1--3--4-3-1---1-1----------------------------------|
A|-----1--3--4--1---------------------------4-4--3---------------------------|
E|---------------------------------------------------------------------------|

G|--------------------------------------------1------------------------------|
D|-----------------3--4-3-1--3--4-3-1---4-4-3--------------------------------|
A|-----1--3--4--1------------------------------------------------------------|
E|---------------------------------------------------------------------------|

G|--------3-1-------------1-----------------------------------------------------|
D|-------------3-1---1--3-----3-------------------------------------------------|
A|-----1--------------------------3---3--4---4--3-------------------------------|
E|------------------------------------------------------------------------------|

G|--------------------------------------------1------------------------------|
D|-----------------3--4-3-1--3--4-3-1---4-4-3--------------------------------|
A|-----1--3--4--1------------------------------------------------------------|
E|---------------------------------------------------------------------------|

"I met somebody..."
play hard on each beat
G|---------------------------------------------------------------------------|
D|---------------------------------------------------------------------------|
A|-----4(x16)----------------------------------------------------------------|
E|---------------------------------------------------------------------------|

G|------------------------------3333-5555-6666-------------------------------|
D|---------------3333-4444-6666----------------------------------------------|
A|-----4444-6666-------------------------------------------------------------|
E|---------------------------------------------------------------------------|

"I am what I am..."
G|---------------------------------------------------------------------------|
D|------------------------------------3-3-3-3-3-3-3-3-4-3-4-3-4-3------------|
A|----1-1-1-1-1-1-1-1-4-4-4-4-4-4-4-4-----------------------------4----------| x3
E|---------------------------------------------------------------------------|

G|---------------------------------------------------------------------------|
D|------------------------------------3-3-3-3-3-3-3-3-4-4-4-4-4-4-3-3-6------|
A|----1-1-1-1-1-1-1-1-4-4-4-4-4-4-4-4----------------------------------------|
E|---------------------------------------------------------------------------|

===============================================================================
Comments