Grouplove - Lovely Cup Chords & Tabs

 

Lovely Cup Chords & Tabs

Grouplove Chords & Tabs

Version: 1 Type: Bass Tab 0 ratings
1 star 2 stars 3 stars 4 stars 5 stars
comments

Lovely Cup Bass Tab

Lovely Cup
Grouplove
Never Trust a Happy Song


Intro/Chorus
G:--6-66-66---------6-66-66-----------------6---6-----------6---6---|
D:----------8-6-8-6---------8-6-8-6-----------8---8-----------8---8-|
A:----------------------------------9-99-99---------9-99-99---------|
E:------------------------------------------------------------------|

Verse:
G:--6---6-6---------6---6-6-----------------6---6-6---------6--66-|
D:----------8---8-8---------8---8-8-------------------------------|
A:----------------------------------9---9-9---------9---9-9-------|
E:----------------------------------------------------------------|

G:----------------------------------------------------------------|
D:----------------------------------------------------------------|
A:--4---4----------4---4-------------------4---4-----------4---4--|
E:----------6---6----------6---6---2---2-----------2---2----------|
[ Tab from: http://www.guitartabs.cc/tabs/g/grouplove/lovely_cup_btab.html ]
1st Pre-Chorus:
G:-------------------------------------------------|
D:-------------------------------------------------|
A:--------------------------4--4--4--4--4--4--4--4-|
E:--2--2--2--2--6--6--6--6-------------------------|

G:-------------------------------------------------------------------|
D:-------------------------------------------------------------------|
A:-------------------------------------------------------------99999-|
E:--2--2--2--2--6--6--6--6--2--2--2--2--2--2--2--2--2--2--2--2-------|

2nd Pre-Chorus:
G:--------------------------------------------------|
D:--------------------------------------------------|
A:--------------------------4--4--4--4--4--4--4--4--| X3
E:--2--2--2--2--6--6--6--6--------------------------|

G:-------------------------------------------------------------------|
D:-------------------------------------------------------------------|
A:-------------------------------------------------------------99999-|
E:--2--2--2--2--6--6--6--6--2--2--2--2--2--2--2--2--2--2--2--2-------|

Bridge:
G:-------------------------------------------------|
D:-------------------------------------------------| X4
A:--------------------------4--4--4--4--4--4--4--4-|
E:--0--0--2--0--4--4--4--4-------------------------|
Comments