Grouplove - Itchin On A Photograph Chords & Tabs

 

Itchin On A Photograph Chords & Tabs

Grouplove Chords & Tabs

Version: 1 Type: Bass Tab 0 ratings
1 star 2 stars 3 stars 4 stars 5 stars
comments

Itchin On A Photograph Bass Tab

-------------------------------------------------------------------------------
                             Itchin' On A Photograph - GROUPLOVE
-------------------------------------------------------------------------------
Tabbed by: jameskh95
E-mail: jameskh95@hotmail.co.uk

Tuning:Standard

1st Verse
G|--------------------------------------------------------------------------|
D|--------------------------------------------------------------------------|
A|---------46/9-6-4----------46/9-6-9\----------46/9-6-4----------46/9-6-4--|
E|2--22--26---------2--22--26----------2--22--26---------2--22--26----------|

Chorus
G|------------------------------------------------------------|
D|------------------------------------------------------------|
A|----6--62--2--------6--62--2--------6--62--2--------6--62--2|
E|2--2--------4--42--2--------4--42--2--------4--42--2--------|

G|----------------|
D|----------------|
A|------------2244|
E|444444444466----|

Pre Verse
G|------------------------------------|
D|------------------------------------|
A|---------46/9-6-4----------46/9-6-9\|
E|2--22--26---------2--22--26---------|
[ Tab from: http://www.guitartabs.cc/tabs/g/grouplove/itchin_on_a_photograph_btab.html ]
2nd Verse
G|------------------------------------------------------------------|
D|------------------------------------------------------------------|
A|--------6--62--2--------6--62--2---------46/9-6-4---------46/9-6--|
E|2--22--2--------2--22--2--------2--22--26---------2--22-26--------|

2nd Chorus
G|---------------------------------------------------------|
D|---------------------------------------------------------|
A|----6--62--2--------6--62--2--------6--62--2--------6--62|
E|2--2--------4--42--2--------4--42--2--------4--42--2-----|

Bridge 
G|---------------------------------------------------------------------------|
D|-----------------------------------1144------------------------------------|
A|222222221--------------222222222244----1111----1111----444444444-------/9--|
E|-------------------------------------------1111----1111--------------------|

3rd Verse
G|--------------------------------------------------------------------------|
D|--------------------------------------------------------------------------|
A|---------46/9-6-4----------46/9-6-9\----------46/9-6-4----------46/9-6-/9-|
E|2--22--26---------2--22--26----------2--22--26---------2--22--26----------|

Solo
G|--------------------------------------------------------------------------------|
D|--------------------------------------------------------------------------------|
A|--------66662222--------66662222--------66662222--------66662222----------9\--9\|
E|22222222--------22222222--------22222222--------22222222--------2---2---2/--2/--| x2


| /  slide up
| \  slide down
===============================================================================
Comments