Group X - Too Many Guys Chords & Tabs

 

Too Many Guys Chords & Tabs

Group X Chords & Tabs

Version: 1 Type: Bass Tab 0 ratings
1 star 2 stars 3 stars 4 stars 5 stars
comments

Too Many Guys Bass Tab

URL to official Group X page : http://www.groupxarab.com/
Country : Saudi Arabia (I think)
Albums: 40 oz. Slushie, Group X


Song: Too Many Guys
Band: Group X
Album: Stepping on the Crowtch owf your Americain Presidaint


 Intro
|-----2--0--2p0------------|------------------|
|----------------0--2------|------------------|
|-0------------------------|------------------|
|--------------------------|---3---3---3---3--|

|-----2--0--2p0------------|-----------2h4----|
|----------------0--2------|------------------|
|-0------------------------|------------------|
|---------------------0--0-|---3---3----------|

|-----2--0--2p0------------|------------------|
|----------------0--2------|------------------|
|-0------------------------|---3---3---2------|
|--------------------------|---------------3--|

|-----2--0--2p0------------|-----------2h4----|
|----------------0--2------|------------------|
|-0------------------------|------------------|
|---------------------0--0-|---3p0h3----------|

 Verse
|-----2--0--2p0------------|------------------|
|----------------0--2------|------------------|
|-0------------------------|------------------|
|--------------------------|---3---3---3---3--|

|-----2--0--2p0------------|-----------2h4----|
|----------------0--2------|------------------|
|-0------------------------|------------------|
|---------------------0--0-|---3---3----------|

|-----2--0--2p0------------|------------------|
|----------------0--2------|------------------|
|-0------------------------|---3---3---2------|
|--------------------------|---------------3--|

|-----2--0--2p0------------|-----------2h4----|
|----------------0--2------|------------------|
|-0------------------------|------------------|
|---------------------0--0-|---3p0h3----------|

 Chorus
|-----------------------|------------------|
|-3--3----------0--2--2-|------------------|
|------------3----------|-0--0--0---0--0---|
|-----------------------|------------------|

|-----------------------|-2--2--2---2--2---|
|-3--3----------0--2--2-|------------------|
|------------3----------|------------------|
|-----------------------|------------------|

|-----------------------|------------------|
|----2-------2-------2--|-2--2--2---2--2---|
|-----------------------|------------------|
|-----------------------|------------------|

Verse 2
|-----2--0--2p0------------|------------------|
|----------------0--2------|------------------|
|-0------------------------|---3---3---2------|
|--------------------------|---------------3--|

|-----2--0--2p0------------|-----------2h4----|
|----------------0--2------|------------------|
|-0------------------------|------------------|
|---------------------0--0-|---3p0h3----------|

|-----2--0--2p0------------|------------------|
|----------------0--2------|------------------|
|-0------------------------|---3---3---3---3--|
|--------------------------|------------------|
[ Tab from: http://www.guitartabs.cc/tabs/g/group_x/too_many_guys_btab.html ]
|-----2--0--2p0------------|-----------2h4----|
|----------------0--2------|------------------|
|-0------------------------|------------------|
|---------------------0--0-|---3p0h3----------|

|-----2--0--2p0------------|------------------|
|----------------0--2------|------------------|
|-0------------------------|---3---3---2------|
|--------------------------|---------------3--|

|-----2--0--2p0------------|-----------2h4----|
|----------------0--2------|------------------|
|-0------------------------|------------------|
|---------------------0--0-|---3p0h3----------|

 Chorus
|-----------------------|----------2p0-----|
|-3--3----------0--2--2-|--------------2---|
|------------3----------|-0--0--0----------|
|-----------------------|------------------|

|-----------------------|-2--2--2---2--2---|
|-3--3----------0--2--2-|------------------|
|------------3----------|------------------|
|-----------------------|------------------|

|-----------------------|------------------|
|----2-------2-------2--|-2--2--2---2--2---|
|-----------------------|------------------|
|-----------------------|------------------|

 Verse 3
|-----2--0--2p0------------|------------------|
|----------------0--2------|------------------|
|-0------------------------|---3---3---2------|
|--------------------------|---------------3--|

|-----2--0--2p0------------|-----------2h4----|
|----------------0--2------|------------------|
|-0------------------------|------------------|
|---------------------0--0-|---3p0h3----------|

|-----2--0--2p0------------|------------------|
|----------------0--2------|------------------|
|-0------------------------|---3---3---2------|
|--------------------------|---------------3--|

|-----2--0--2p0------------|-----------2h4----|
|----------------0--2------|------------------|
|-0------------------------|------------------|
|---------------------0--0-|---3p0h3----------|

 Chorus
|-----------------------|----------2p0-----|
|-3--3----------0--2--2-|--------------2---|
|------------3----------|-0--0--0----------|
|-----------------------|------------------|

|-----------------------|-2--2--2---2--2---|
|-3--3----------0--2--2-|------------------|
|------------3----------|------------------|
|-----------------------|------------------|

|-----------------------|------------------|
|----2-------2-------2--|-2--2--2---2--2---|
|-----------------------|------------------|
|-----------------------|------------------|

 Outro
|-----2--0--2p0------------|------------------|
|----------------0--2------|------------------|
|-0------------------------|---3---3---2------|
|--------------------------|---------------3--|

|-----2--0--2p0------------|-----------2h4----|
|----------------0--2------|------------------|
|-0------------------------|------------------|
|---------------------0--0-|---3p0h3----------|

|-----2--0--2p0------------|------------------|
|----------------0--2------|------------------|
|-0------------------------|---3---3---3---3--|
|--------------------------|------------------|

|-----2--0--2p0------------|-----------2h4----|-----|
|----------------0--2------|------------------|-----|
|-0------------------------|------------------|--0--|
|---------------------0--0-|---3p0h3----------|-----|
Comments