Group X - Strawberry Short Song Chords & Tabs

 

Strawberry Short Song Chords & Tabs

Group X Chords & Tabs

Version: 1 Type: Bass Tab 0 ratings
1 star 2 stars 3 stars 4 stars 5 stars
comments

Strawberry Short Song Bass Tab

URL to official Group X page : http://www.groupxarab.com/
Country : Saudi Arabia (I think)
Albums: 40 oz. Slushie, Group X


Song: Strawberry Short Song
Band: Group X
Album: Stepping on the Crowtch owf your Americain Presidaint

[ Tab from: http://www.guitartabs.cc/tabs/g/group_x/strawberry_short_song_btab.html ]
 Intro/Verse/Outro
|------------------------|------------------------|
|-------9--9--7--7--5--5-|-------7--7--5--5--4--4-|
|-7--7-------------------|-5--5-------------------|
|------------------------|------------------------|

|------------------------|------------------------|
|-------9--9--7--7--5--5-|-------7--7--5--5--4--4-|
|-7--7-------------------|-5--5-------------------|
|------------------------|------------------------|

|------------------------|------------------------|
|-------9--9--7--7--5--5-|------------------------|
|-7--7-------------------|-5----------------------|
|------------------------|------------------------|
Comments