Group X - Soccer Chords & Tabs

 

Soccer Chords & Tabs

Group X Chords & Tabs

Version: 1 Type: Bass Tab 0 ratings
1 star 2 stars 3 stars 4 stars 5 stars
comments

Soccer Bass Tab

   
Album: Stepping on da Crowtche owf Yore Americain Presidainte

this is a fairly easy song. the song structure is like this:

intro x1
verse x10
chorus x2
verse x6
chorus x2
verse x7
chorus x2
outro x1

Tabbed By : warwickbassman
e-mail: moptop113@aol.com

Tuning: EADG

intro
G|---------------------------------------------------------------------------|
D|---------------------------------------------------------------------------|
A|--------0------------------------------------------------------------------|
E|------------------------------------------0--------------------------------|
[ Tab from: http://www.guitartabs.cc/tabs/g/group_x/soccer_btab.html ]
verse
G|---------------------------------------------------------------------------|
D|----------------------------------------------3----------------------------|
A|-------5--------5------3--------3--------1--------0----------0-------------|
E|------------5---------------3---------------------------3------------------|

chorus
G|---------------------------------------------------------------------------|
D|-----------------------------------------------3-3-2-----------------------|
A|-------5------5----3------3----5------5---3----------------0-0---------0-0|
E|-----------5-----------3-----------5---------------------------------------|

outro
G|-------------|
D|----0--------|
A|-------------|
E|-------------|

| /  slide up
| \  slide down
| h  hammer-on
| p  pull-off
| ~  vibrato
| +  harmonic
| x  Mute note
Comments