Group X - Cheese Chords & Tabs

 

Cheese Chords & Tabs

Group X Chords & Tabs

Version: 1 Type: Bass Tab 0 ratings
1 star 2 stars 3 stars 4 stars 5 stars
comments

Cheese Bass Tab

URL to official Group X page : http://www.groupxarab.com/
Country : Saudi Arabia (I think)
Albums: 40 oz. Slushie, Group X


Song: Cheese
Band: Group X
Album: Stepping on the Crowtch owf your Americain Presidaint

 Verse
|-----------------------|------------------------|
|-----------------------|------------------------|
|-3--3---5--5-----------|-3--3---5--5------------|
|---------------3--3--3-|---------------3--3--3--|

|-----------------------|------------------------|
|-----------------------|------------------------|
|-3--3---5--5-----------|-1--1--1--1--1--1--1--1-|
|---------------3--3--3-|------------------------|

|-----------------------|------------------------|
|-----------------------|------------------------|
|-3--3---5--5-----------|-3--3---5--5------------|
|---------------3--3--3-|---------------3--3--3--|
[ Tab from: http://www.guitartabs.cc/tabs/g/group_x/cheese_btab.html ]
|-----------------------|------------------------|
|-----------------------|------------------------|
|-3--3---5--5-----------|-1--1--1--1--1--1--1--1-|
|---------------3--3--3-|------------------------|

 Chorus (x2)
|-----------------------|------------------------|
|-0--0---3--3-----------|-0--0---3--3------------|
|---------------1--1--1-|---------------1--1--1--|
|-----------------------|------------------------|

|-----------------------|------------------------|
|-0--0---3--3-----------|------------------------|
|---------------1--1--1-|-3--3--3--3--3--3--3--3-|
|-----------------------|------------------------|

|-----------------------|------------------------|
|-----------------------|------------------------|
|-3--3---5--5-----------|-3--3---5--5------------|
|---------------3--3--3-|---------------3--3--3--|

|-----------------------|------------------------|
|-----------------------|------------------------|
|-3--3---5--5-----------|-1--1--1--1--1--1--1--1-|
|---------------3--3--3-|------------------------|
Comments