Groundhogs - Earth Shanty Chords & Tabs

 

Earth Shanty Chords & Tabs

Groundhogs Chords & Tabs

Version: 1 Type: Tab 0 ratings
1 star 2 stars 3 stars 4 stars 5 stars
comments

Earth Shanty Tab

   
#----------------------------------PLEASE NOTE---------------------------------#
#This file is the author's own work and represents their interpretation of the #
#song. You may only use this file for private study, scholarship, or research. #
#------------------------------------------------------------------------------#
#

From: Malc Brookes 
Subject: TAB: Earth Shanty by the Groundhogs
Date: Mon, 03 Nov 1997 21:57:30 GMT

Earth Shanty by Tony T.S. McPhee
>From the album Hogwash by The Groundhogs
Tabbed by Malc Brookes (malc@malbro.demon.co.uk)


Tuning:
Standard, EADGBE.


Chords:
D     xx0232
D/F#  200232
Cadd9 x32030
G     320033
A     x02220
Asus4 x02232
F     133211
F#m   244222


        1 . 2 . 3 . 4 .   1 . 2 . 3 . 4 .
E|----|-----------------|-----------------|
B|----|-----------------|-----------------|
G|-2/-|-7---7---7-7-----|-7-6-----5---5/--|
D|----|-0-----0-7-6-----|-5-4-----3-------|
A|----|-----------------|-------0---------|
E|----|-----------------|-----------------|


   1 . 2 . 3 . 4 .   1 . 2 . 3 . 4 .
E|-----------------|-----------------|
B|-----------------|-----------------|
G|-7---7---7-7-----|-7-6-----5---5/--|
D|-0-----0-7-6-----|-5-4-----3-------|
A|-----------------|-------0---------|
E|-----------------|-----------------|


   1 . 2 . 3 . 4 .   1 . 2 . 3 . 4 .
E|-----------------|-----------------|
B|-----------------|-------------6/--|
G|-7---7---7-7-----|-7-6-----5---5/--|
D|-0-----0-7-6-----|-5-4-----3-------|
A|-----------------|-------0---------|
E|-----------------|-----------------|


   1 . 2 . 3  .  4 .   1 . 2 . 3 . 4 .
E|-------------------|-----------------|
B|-------------------|---------1-------|
G|-9---9---10-10-----|-9--7------------|
D|-7-----7-10-9------|-7--5----3-------|
A|-0-----------------|-----------------|
E|-------------------|-------1---------|


   1 . 2 . 3 . 4 .   1 . 2 . 3 . 4 .
E|-----1-----1-----|---1-------1-----|
B|-1h3---3-1---1-0-|-----0-----------|
G|-----------------|-------3-----3---|
D|-0-------0-------|-----------------|
A|-----------------|-----------------|
E|-----------------|-----------------|


   1 . 2 . 3  .  4 .   1 . 2 . 3 . 4 .
E|-------------------|-----------------|
B|-------------------|---------1-------|
G|-9---9---10-10-----|-9---7-----------|
D|-7-----7-10-9------|-7---5---3-------|
A|-0-----------------|-----------------|
E|-------------------|---------1-------|

[ Tab from: http://www.guitartabs.cc/tabs/g/groundhogs/earth_shanty_tab.html ]
   1 . 2 . 3 . 4 .   1 . 2 . 3 . 4 .
E|-----1-----1-----|---1-------1-----|
B|-1h3---3-1---1-0-|-----0-----------|
G|-----------------|-------3-----3---|
D|-0-------0-------|-----------------|
A|-----------------|-----------------|
E|-----------------|-----------------|


   1 . 2 . 3  .  4 .   1 . 2 . 3 . 4 .
E|-------------------|-----------------|
B|-------------------|---------1-------|
G|-9---9---10-10-----|-9---7-----------|
D|-7-----7-10-9------|-7---5---3-------|
A|-0-----------------|-----------------|
E|-------------------|---------1-------|


   1 . 2 . 3 . 4 .   1 . 2 . 3 . 4 .
E|-----------------|-----------------|
B|-----3-------3---|-----3-------3---|
G|---2-------2-----|---0-------2-----|
D|-0-----0---------|-----------------|
A|---------3-----3-|-2-----2-0-----0-|
E|-----------------|-----------------|


   1 . 2 . 3 . 4 .   1 . 2 . 3 . 4 .
E|-----------------|-----------------|
B|-----3-------3---|-----3-------3---|
G|---0-------0-----|---2-------2-----|
D|-----------------|-----------------|
A|-----------------|-----------------|
E|-3-----3-1-----1-|-2-----2-2-----2-|


   1 . 2 . 3 . 4 .   1 . 2 . 3 . 4 .
E|-----------------|-----------------|
B|-----2-------0---|-----2---3---2---|
G|-----------0-----|-----2---2---2---|
D|---4-------------|---2-------------|
A|-----------------|-0-----0---0---0-|
E|-2-----2-3-----3-|-----------------|


   1 . 2 . 3 . 4 .   1 . 2 . 3 . 4 .
E|-----------------|-----------------|
B|-----3-------3---|-----3-------3---|
G|---2-------2-----|---0-------2-----|
D|-0-----0---------|-----------------|
A|---------3-----3-|-2-----2-0-----0-|
E|-----------------|-----------------|



   1 . 2 . 3 . 4 .   1 . 2 . 3 . 4 .
E|-----------------|-----------------|
B|-----3-------3---|-3---------------|
G|---0-------0-----|-2---------------|
D|-----------------|-0---------------|
A|-----------------|-0-----------0---|
E|-3-----3-1-----1-|-2-----2-2h3-----|


(strum)


D / Cadd9 / G / Asus4 / G / F / D/F# / / / (3 times)



   1 . 2 . 3 . 4 .   1 .  2 . 3 . 4 .
E|-----------------|------------------|
B|-----------------|------------------|
G|-7-------7-------|-7----7---7-------|
D|-0------10-------|-9h10-9---7-------|
A|-----------------|------------------|
E|-----------------|------------------|


   1 . 2 . 3 . 4 .   1 . 2 . 3 . 4 .
E|-----------------|-----------------|
B|-----------------|-------------3---|
G|-7---7---5-------|-4----------2----|
D|-5h7-5---3-------|-2---------0-----|
A|---------0-------|----------0------|
E|-----------------|---------2-------|
Comments