Groundhogs - Earth Is Not Room Enough Chords & Tabs

 

Earth Is Not Room Enough Chords & Tabs

Groundhogs Chords & Tabs

Version: 1 Type: Tab 0 ratings
1 star 2 stars 3 stars 4 stars 5 stars
comments

Earth Is Not Room Enough Tab

   
----------------------------------PLEASE NOTE--------------------------------#
#This file is the author's own work and represents their interpretation of the#
#song. You may only use this file for private study, scholarship, or research.#
#-----------------------------------------------------------------------------#

Date: Wed, 11 Mar 1998 14:27:32 GMT
From: Malc Brookes 
Subject: CRD: Earth Is Not Room Enough by The Groundhogs

Earth Is Not Room Enough by Tony T.S. McPhee
>From the album The Groundhogs: Who Will Save The World?

Tuning:
Standard, EADGBE.

Chords:
Cadd9 x32030


Intro:

Play 8 times
E|--------1-3---5--5--5-5-5-5--|--------1-3---5--5--8-8-8-8--|
B|--1--3--1-1---3--3--3-3-3-3--|--1--3--1-1---3--3--6-6-6-6--|
G|--2--2--2-2---4--4--4-4-4-4--|--2--2--2-2---4--4--7-7-7-7--|
D|-----------------------------|-----------------------------|
A|-----------------------------|-----------------------------|
E|-----------------------------|-----------------------------|

[ Tab from: http://www.guitartabs.cc/tabs/g/groundhogs/earth_is_not_room_enough_tab.html ]
Last time through
E|--8-8-8---10-10-10---10-10-10---10--|
B|--6-6-6---8--8--8----8--8--8----7---|
G|--7-7-7---7--7--7----9--9--9----7---|
D|------------------------------------|
A|------------------------------------|
E|------------------------------------|


D / G / D / G /


Instrumental section:

(Originally played by the bass)
E|-------------------------------|
B|-------------------------------|
G|-------------------------------|
D|--0--0----0-3--0----0---3-0----|
A|-------3---------3----------3--|
E|-------------------------------|

C / Cadd9 C Cadd9
A / Asus4 A Asus4
G / / /
Em / / Emsus4
Em / / Emsus4....continue until ending.


Ending (as intro but moved up a tone/step):

Play 8 times
E|--------3-5---7--7--7-7-7-7--|--------3-5---7--7--10-10-10-10-|
B|--3--5--3-3---5--5--5-5-5-5--|--3--5--3-3---5--5--8--8--8--8--|
G|--4--4--4-4---6--6--6-6-6-6--|--4--4--4-4---6--6--9--9--9--9--|
D|-----------------------------|--------------------------------|
A|-----------------------------|--------------------------------|
E|-----------------------------|--------------------------------|

Last time through
E|--10-10-10--12-12-12---12-12-12---12--|
B|--8--8--8---10-10-10---10-10-10---9---|
G|--9--9--9---11-11-11---11-11-11---9---|
D|--------------------------------------|
A|--------------------------------------|
E|--------------------------------------|

Comments