Ground Zero - Dammit Chords & Tabs

 

Dammit Chords & Tabs

Ground Zero Chords & Tabs

Version: 1 Type: Tab 0 ratings
1 star 2 stars 3 stars 4 stars 5 stars
comments

Dammit Tab

      Ground Zero - Dammit
          

.:Submitted By Albert Liu (Vocals/Guitarist):.
      
          Members: Me
                     Eric Higashi (Bass)
                       JR Imperial (Drums)
                         Mark Prado (Guitarist/vocals) 

                -Play this song with distortion

        Intro
e---------------------------------------------------
B---------------------------------------------------
G---------------------------------------------------
D-----0-0-2-------0-0-2-------0-0-2-------2-2-0-----
A-3-3---------------------0-0-----------------------
E-------------3-3---------------------1-1-----------


        Verse
e------------------------------------------------------
B------------------------------------------------------
G--5--X-X-X-X------------------------------------------
D--5--X-X-X-X--5--X-X-X-X--7--X-X-X-X--3--X-X-X-X------
A--3--X-X-X-X--5--X-X-X-X--7--X-X-X-X--3--X-X-X-X------
E--------------3--X-X-X-X--5--X-X-X-X--1--X-X-X-X------

[ Tab from: http://www.guitartabs.cc/tabs/g/ground_zero/dammit_tab.html ]
        Verse part 2
e-------------------------------------------------------
B-------------------------------------------------------
G--5-5-5-5-5-5------------------------------------------
D--5-5-5-5-5-5--5-5-5-5-5-5--7-7-7-7-7-7--3-3-3-3-3-----
A--3-3-3-3-3-3--5-5-5-5-5-5--7-7-7-7-7-7--3-3-3-3-3-----
E---------------3-3-3-3-3-3--5-5-5-5-5-5--1-1-1-1-1-----


        Chorus
e-------------------------------------------------------------------------
B-------------------------------------------------------------------------
G--5-5-5-5-5-5-5-5--------------------------------------------------------
D--5-5-5-5-5-5-5-5-5-5-5-5-5-5-5-5-7-7-7-7-7-7-7-7-3-3-3-3-3-3-3-3-3------
A--3-3-3-3-3-3-3-3-5-5-5-5-5-5-5-5-7-7-7-7-7-7-7-7-3-3-3-3-3-3-3-3-3------
E------------------3-3-3-3-3-3-3-3-5-5-5-5-5-5-5-5-1-1-1-1-1-1-1-1-1------


        Intrelude (clean)
e---------------------------------------------------
B---------------------------------------------------
G---------------------------------------------------
D--2------0--2------2---------0-2---0-2----2--------
A----3---------3------3-----------3-----3----3------
E------3----------------3----------------------3----

     
                       .:Order Of The Song:.

Intro    (x4)
Verse    (x2)
Verse2   (x2)
Intro    (x2)
Verse    (x2)
Verse    (x2)
Chorus   (x2)
Intro    (x2)
Verse    (x2)
Verse2   (x2)
Chorus   (x2)
Intrelude(x2)
Intro    (x4)
Comments